Song name
# A B C D E F G H I J K L M N O P Q R S T U V W X Y Z

Hi-5 - Going Out tab

Going Out

Chorus/Verse (w/pm)
e|--------------|--------|
b|--------------|--------|
g|--7-----4-----|--------|
d|--7--5--4--7--|--5--7--|
a|--5--5--2--7--|--5--7--|
E|-----3-----5--|--3--5--|

e|--------------------------------------|
b|--------7--8--7-----7-----------------|
g|--7--9-----------9-----7-----9--6-----|
d|--------------------------7--------7--|
a|--------------------------------------|
E|--------------------------------------|

------7--8--7-----7-----------------------------------|
7--9-----------9-----7-----9--6-----9--6-----9--6-----|
------------------------7--------7--------7--------7--|
------------------------------------------------------|
------------------------------------------------------|
------------------------------------------------------|

“Open the door, step outside…”
e|--------------------------|
b|--------------------------|
g|-----7-----------6--7--9--|
d|--5--7--5--------6--7--9--|
a|--5--5--5--[x2]--4--5--7--|
E|--3-----3-----------------|
Tap to rate this tab
 
# A B C D E F G H I J K L M N O P Q R S T U V W X Y Z