Guitaretab - guitar tabs
Song name
# A B C D E F G H I J K L M N O P Q R S T U V W X Y Z

High School Musical - Scream tab

Being a part of the school production of HSM was really cool
and during our break we were treated to HSM 3 DVD ;)
Was a cool song for me and a couple of friends when we saw it, 
however,saw no tabs for it, so i decided to write it out myself.

This kinda goes out to my friends from HSM 2011 :D

NOTE: I haven't got the solo included, but i have played
	around with it and i've kinda decided that if you
	base it off Slash's Knocking on Heavens Door Solo
	tabs it sounds pretty good :D

Key:
x = Palm Mute (on chords shown before)
\ = Normal Slide Down
\\ = Pick Slide Down
H = Hammer On
P = Pull Off
T = Tap

Intro     P H P H P H P (gradually increase in speed)
e----------------------------------------------|
B----------------------------------------------|
G-------9-7-9-7-9-7-9-7-9797979797979\\\\------|
D----------------------------------------------|
A----------------------------------------------|
E----------------------------------------------|

[ Tab from: http://www.guitaretab.com/h/high-school-musical/281577.html ]
Verse
e----------------------------------------------|
B----------------------------------------------|        
G-------9-9-x-x-x-7-7-x-x-x-5-5-x-x-x-5-5-x-7-7|   N.B you can either P.M on the quarters
D-------9-9-x-x-x-7-7-x-x-x-5-5-x-x-x-5-5-x-7-7|	 or on the 8th's, it doesn't matter,
A-------7-7-x-x-x-5-5-x-x-x-3-3-x-x-x-3-3-x-5-5|	 or not at all,just whatever sounds
E----------------------------------------------|	 cool/best ;)

Pre-Chorus
e----------------------------------------------|
B----------------------------------------------|
G-----x-5------x-x-7------x-x-8----------------|
D-----x-5------x-x-7------x-x-8----------------|
A-----x-3------x-x-5------x-x-6----------------|
E----------------------------------------------|

Chorus
e----------------------------------------------|
B----------------------------------------------|
G---x-x-7---------5---------3---------5--------|	Make up whatever P.M's you want in here
D---x-x-7---------5---------3---------5--------|	just fix to your liking 
A---x-x-7---------5---------3---------5--------|
E----------------------------------------------|

Solo/Fills

Anywhere around 12 on the G-String/Similar to
GnR K.O.H.D song. Improv is generally a good idea

Bridge    
        1 2 3 4 |       1 2 3 4 |     1 2 3 4 | 1 2  3 4 |
e---------------|      ---------|     --------------------|
B---------------|      ---------|     --------------------|
G------12xxxxxxx| x4   13xxxxxxx|     14xxxxxxx14-x-\\-\\-|
D------12xxxxxxx|      13xxxxxxx| x2  14xxxxxxx14-x-\\-\\-|
A------10xxxxxxx|      11xxxxxxx|     12xxxxxxx12-x-\\-\\-|
E---------------|      ---------|     --------------------|

Hope you guys enjoy!

NB this is my first actual submitted tab, so do
feel free to criticise/review etc... Cheers :D !
Related for Scream tab
Scream chords by High School Musical