Song name
# A B C D E F G H I J K L M N O P Q R S T U V W X Y Z

High School Musical - Scream tab

High School Musical 3
Scream

Was Listening To This Song And Started Playing It For Some Reason
Hope You Enjoy!!!

Intro/Verse
e------------------------------------------------|
B------------------------------------------------|
G------------------------------------------------|        x2
D-------7-7-------5-5-------3-3-------3-3---5-5--|
A-------7-7-------5-5-------3-3-------3-3---5-5--|
E-------7-7-------5-5-------3-3-------3-3---5-5--|

Pre-Chorus
e------------------------------------------------|
B------------------------------------------------|
G------------------------------------------------|
D-------3----------5----------6------------------|
A-------3----------5----------6------------------|
E-------3----------5----------6------------------|

Chorus
e------------------------------------------------|
B------------------------------------------------|
G------------------------------------------------|
D-------7---------5---------3---------5----------|
A-------7---------5---------3---------5----------|
E-------7---------5---------3---------5----------|

Bridge
e------------------------------------------------|
B------------------------------------------------|
G------------------------------------------------|
D-------9---------11--------7---------5---3---5--|
A-------9---------11--------7---------5---3---5--|
E-------9---------11--------7---------5---3---5--|


Hope You Enjoy!!!!!!!!!!!!!!!!
Tap to rate this tab
# A B C D E F G H I J K L M N O P Q R S T U V W X Y Z