Song name
# A B C D E F G H I J K L M N O P Q R S T U V W X Y Z

Hilera - Define tab

Help us improve GuitareTab! Take a short survey!
-------------------------------------------------------------------------------
Define - Limp Wrist
Thee Official Limp Wrist Discography
-------------------------------------------------------------------------------
Tabbed by: axeslash
Email: holmzito@yahoo.com

Tuning: Standard

e|-------------------------------------|
B|-------------------------------------|
G|----12-----12------------------------|
D|-9--12--9--12--12-12--12-12-12-12-12-|
A|-9--10--9--10--12-12--12-12-12-12-12-|
E|-7------7------10-10--10-10-10-10-10-| x4

e|------------------------------------------------|
B|------------------------------------------------|
G|----------10------------------------------------|
D|-9--------10--------12--------9--12----9--12----|
A|-9---------8--------12--------9--12----9--12----|
E|-7------------------10--------7--10----7--10----|

e|----------------------------------------------|
B|----------------------------------------------|
G|----------10----------------------------------|
D|-9--------10--------12------------------------|
A|-9---------8--------12------------------------|
E|-7------------------10------------------------|

e|-------------------------------------|
B|-------------------------------------|
G|----12-----12------------------------|
D|-9--12--9--12--12-12--12-12-12-12-12-|
A|-9--10--9--10--12-12--12-12-12-12-12-|
E|-7------7------10-10--10-10-10-10-10-| x4

e|------------------------------------------------|
B|------------------------------------------------|
G|----------10------------------------------------|
D|-9--------10--------12--------9--12----9--12----|
A|-9---------8--------12--------9--12----9--12----|
E|-7------------------10--------7--10----7--10----|

e|------------------------------------------------|
B|------------------------------------------------|
G|----------10------------------------------------|
D|-9--------10--------12------------------------9-|
A|-9---------8--------12------------------------9-|
E|-7------------------10------------------------7-|


| /  slide up
| \  slide down
| h  hammer-on
| p  pull-off
| ~  vibrato
| +  harmonic
| x  Mute note
===============================================================================
Related for Define tab