Song name
# A B C D E F G H I J K L M N O P Q R S T U V W X Y Z

Hillsong United - Break Free tab

Hillsong United - Break Free

Standard tuning on electric guitar

I tabbed this song only to find out that you can get a professional one free online. Either 

way for those of you who are looking for this tab I'd say it's pretty close.
I watched a few guys play it, listened and played with the song.

From the instrumental through the last pre-chorus and chorus you really need to listen to the 

song to find the rhythm. The chords are there, but it's difficult to tab. 


Legend:

* - for ever 1/4 bend (** 1/2 bend)
x - muted notes
\ - slide down
/ - slide up

Intro

e|--------------------------------xx-xx-x--------------|
B|--------------------------------xx-xx-x--------------|
G|--------------------------------xx-xx-x--------------|
D|--------------------------------xx-xx-x--------------|
A|---------------------00-4-0-4-6-xx-xx-x-0-4-0-4-6**--|
E|-2222-2222-2222-2222------------xx-xx-x--------------| x2

Verse 1

e|--------------------------------xx-xx-x--------------|
B|--------------------------------xx-xx-x--------------|
G|--------------------------------xx-xx-x--------------|
D|--------------------------------xx-xx-x--------------|
A|---------------------00-4-0-4-6-xx-xx-x-0-4-0-4-6**--|
E|-2222-2222-2222-2222------------xx-xx-x--------------| x2

Pre-chorus

e|-----------------------------------------------------|
B|-----------------------------------------------------|
G|-----------------------------------------------------|
D|------------------------44--66--44--66\--------------|
A|------------------------55--55--55--55\--------------|
E|-22-2*-2*--22-2*-2*-22-------------------------------|

Verse 2

e|--------------------------------xx-xx-x--------------|
B|--------------------------------xx-xx-x--------------|
G|--------------------------------xx-xx-x--------------|
D|--------------------------------xx-xx-x--------------|
A|---------------------00-4-0-4-6-xx-xx-x-0-4-0-4-6**--|
E|-2222-2222-2222-2222------------xx-xx-x--------------| x2

Pre-chorus

e|-----------------------------------------------------|
B|-----------------------------------------------------|
G|-----------------------------------------------------|
D|------------------------44--44--44--44---------------|
A|------------------------55--55--55--55---------------|
E|-22-2*-2*--22-2*-2*-22-------------------------------|

Chorus

e|-----------------------------------------------------|
B|-22-22-22-22--22-22-22-22--77-77-77-77--77-77-99-99--|
G|-22-22-22-22--22-22-22-22--77-77-77-77--77-77-99-99--|
D|-22-22-22-22--22-22-22-22--77-77-77-77--77-77-99-99--|
A|-00-00-00-00--22-22-22-22--55-55-55-55--55-55-77-77--|
E|-----------------------------------------------------|

e|-----------------------------------------------------|
B|-9-9-9-9-9-9-9-9--9-9-9-9-9-9-9-9---77-77--77-77--7-7|
G|-1010101010101010-1010101010101010--77-77--77-77--7-7|
D|-1111111111111111-1111111111111111--77-77--77-77--7-7|
A|-9-9-9-9-9-9-9-9--9-9-9-9-9-9-9-9---55-55--55-55--5-5|
E|-----------------------------------------------------|

Intro repeat

e|--------------------------------xx-xx-x--------------|
B|--------------------------------xx-xx-x--------------|
G|--------------------------------xx-xx-x--------------|
D|--------------------------------xx-xx-x--------------|
A|---------------------00-4-0-4-6-xx-xx-x-0-4-0-4-6**--|
E|-2222-2222-2222-2222------------xx-xx-x--------------|

Verse 3

e|--------------------------------xx-xx-x--------------|
B|--------------------------------xx-xx-x--------------|
G|--------------------------------xx-xx-x--------------|
D|--------------------------------xx-xx-x--------------|
A|---------------------00-4-0-4-6-xx-xx-x-0-4-0-4-6**--|
E|-2222-2222-2222-2222------------xx-xx-x--------------| x2

Pre-chorus

e|-----------------------------------------------------|
B|-----------------------------------------------------|
G|-----------------------------------------------------|
D|------------------------44--44--44--44---------------|
A|------------------------55--55--55--55---------------|
E|-22-2*-2*--22-2*-2*-22-------------------------------|

Chorus

e|-----------------------------------------------------|
B|-22-22-22-22--22-22-22-22--77-77-77-77--77-77-99-99--|
G|-22-22-22-22--22-22-22-22--77-77-77-77--77-77-99-99--|
D|-22-22-22-22--22-22-22-22--77-77-77-77--77-77-99-99--|
A|-00-00-00-00--22-22-22-22--55-55-55-55--55-55-77-77--|
E|-----------------------------------------------------|

e|-----------------------------------------------------|
B|-9-9-9-9-9-9-9-9--9-9-9-9-9-9-9-9---77-77--77-77--7-7|
G|-1010101010101010-1010101010101010--77-77--77-77--7-7|
D|-1111111111111111-1111111111111111--77-77--77-77--7-7|
A|-9-9-9-9-9-9-9-9--9-9-9-9-9-9-9-9---55-55--55-55--5-5|
E|-----------------------------------------------------|

Bridge

e|-----------------------------------------------------|
B|-44-44-44-44---------------77-77-77-77--77-77-77-77--|
G|-44-44-44-44---------------77-77-77-77--77-77-77-77--|
D|-22-22-22-22--44-44-44-44--77-77-77-77--77-77-77-77--|
A|-22-22-22-22--44-44-44-44--55-55-55-55--55-55-55-55--|
E|-00-00-00-00--22-22-22-22----------------------------| x4

Instrumental

e|-9--xx--9--xx--9-9-9-9-9---xx-xx--9-9-9--xx--9-9-9--12121212|
B|-10-xx--10-xx--1010101010--xx-xx--101010-xx--101010-10101010|
G|-9--xx--9--xx--9-9-9-9-9---xx-xx--9-9-9--xx--9-9-9--9-9-9-9-|
D|-11-xx--11-xx--1111111111--xx-xx--111111-xx--111111-11111111|
A|-9--xx--9--xx--9-9-9-9-9---xx-xx--9-9-9--xx--9-9-9--9-9-9-9-|
E|---------------------------xx-xx---------xx-----------------| x4

Pre-chorus

e|xx-xx-9--9--xx-xx-9--9----xx-xx--9---xx-xx-9-9--xx-9--xx-9--12121212|
B|xx-xx-10-10-xx-xx-10-10---xx-xx--10--xx-xx-1010-xx-10-xx-10-10101010|
G|xx-xx-9--9--xx-xx-9--9----xx-xx--9---xx-xx-9-9--xx-9--xx-9--9-9-9-9-|
D|xx-xx-11-11-xx-xx-11-11---xx-xx--11--xx-xx-1111-xx-11-xx-11-11111111|
A|xx-xx-9--9--xx-xx-9--9----xx-xx--9---xx-xx-9-9--xx-9--xx-9--9-9-9-9-|
E|xx-xx-------xx-xx---------xx-xx------xx-xx------xx----xx------------| x4

Chorus

e|-----------------------------------------------------|
B|-22-22-22-22--22-22-22-22--77-77-77-77--77-77-99-99--|
G|-22-22-22-22--22-22-22-22--77-77-77-77--77-77-99-99--|
D|-22-22-22-22--22-22-22-22--77-77-77-77--77-77-99-99--|
A|-00-00-00-00--22-22-22-22--55-55-55-55--55-55-77-77--|
E|-----------------------------------------------------|

e|-----------------------------------------------------|
B|-9-9-9-9-9-9-9-9--9-9-9-9-9-9-9-9---77-77--77-77--7-7|
G|-1010101010101010-1010101010101010--77-77--77-77--7-7|
D|-1111111111111111-1111111111111111--77-77--77-77--7-7|
A|-9-9-9-9-9-9-9-9--9-9-9-9-9-9-9-9---55-55--55-55--5-5|
E|-----------------------------------------------------|

Outro

e|-----------------------------------------------------|
B|-----------------------------------------------------|
G|-----------------------------------------------------|
D|-----------------------------------------------------|
A|-----------------------------------------------------|
E|-2222-2222-2222-2222---------------------------------|




Intro

Verse 1
Would you believe me, would you listen if I told you that
There is a love that makes the way, it never holds you back

Pre-chorus
oh would you break free, would you break free get up and dance, in His love

Verse 2
Who would have thought that God would give his one and only Son
Taken a stand upon the cross to show his perfect love

Pre-chorus
oh would you break free, would you break free get up and dance, in His love

Chorus
love never ending, yeah.
There's no escaping the truth, there's no mistaking it's you
God forever we'll get up and dance, get up and dance and praise you
There's no escaping your love, there's no mistaking your light
Across the world we will get up and dance, get up and dance and praise you

Intro repeat

Verse 3
Now is the time to take this freedom that has come our way
Offer our lives to see the glory of His name

Pre-chorus
oh would you break free, would you break free get up and dance, in His love

Chorus
love never ending, yeah.
There's no escaping the truth, there's no mistaking it's you
God forever we'll get up and dance, get up and dance and praise you
There's no escaping your love, there's no mistaking your light
Across the world we will get up and dance, get up and dance and praise you

Bridge
Never all our days
We are holy Lord, holding onto all your ways
We are holding on, holding on to all you've said and you've done
We are holding on to your love
Now we will dance
Tap to rate this tab
# A B C D E F G H I J K L M N O P Q R S T U V W X Y Z