Song name
# A B C D E F G H I J K L M N O P Q R S T U V W X Y Z

Hillsong United - Second Chance tab

Second chance by Hillsong United
tabbed by tobats
email: gatecrusher07@yahoo.com
i love this song, A greatest gift of God, His second chance.
its pretty cool correct based on what i heard.

instrumental part: keyboard

sounds like this
e|----14---|repeat 16 times
B|-14----12|
G|---------|

the guitar part, play this guitar riff after 5th beat

e|-------------------|
B|--77---------------|
G|------8h9-8-6-8----|
D|----------------6--|
A|-------------------|
E|-------------------|

e|-------------------|
B|--77---------------|
G|------8h9-8-6------|
D|--------------9--6-|
A|-------------------|
E|-------------------|

e|-------------------|
B|--77---------------|
G|------8h9-8-6------|
D|--------------9--6-|
A|-------------------|
E|-------------------|

e|-------------------|
B|--77---------------|
G|------8h9-8-6------|
D|--------------9----|
A|----------------9--|
E|-------------------|
repeat 2 times

e|-------------------|
B|--77---------------|
G|------8h9-8-6-8----|
D|----------------6--|
A|-------------------|
E|-------------------|

e|-------------------|
B|--77---------------|
G|------8h9-8-6------|
D|--------------9--6-|
A|-------------------|
E|-------------------|

e|-------------------|
B|--77---------------|
G|------8h9-8-6-8----|
D|-------------------|
A|-------------------|
E|-------------------|

play this part before chorus
e|-------------------|
B|-5555577777--------|
G|-4444466666--------|
D|-2222244444--------|
A|-------------------|
E|-------------------|

for comments, correction and suggestion email at gatecrusher07@yahoo.com
Tap to rate this tab
 
# A B C D E F G H I J K L M N O P Q R S T U V W X Y Z