Song name
# A B C D E F G H I J K L M N O P Q R S T U V W X Y Z

Hillsong United - Mighty To Save tab

Hillsong United - Mighty To Save
Opening Guitar Rift as performed on the "I Heart Revolution" Album


|-------9------9-----|-------9------9-----|----------------------|-------------------|
|--------------------|--------------------|-------10------12-----|------9-----10-----|
|-----9------9-----9-|-----9------9-----9-|-----9-------9------9-|----9-----9------9-|
|--12-----12---------|--11-----11---------|--11------11----------|--9-----9----------|
|--------------------|--------------------|----------------------|-------------------|
|--------------------|--------------------|----------------------|-------------------|


This rift is a nice change, a little more melodic, and perhaps a bit easier and slower, 
to the more common rift for might to save (below).

e|------9--|
b|---12----|
G|-14------|
Tap to rate this tab
# A B C D E F G H I J K L M N O P Q R S T U V W X Y Z