Song name
# A B C D E F G H I J K L M N O P Q R S T U V W X Y Z

Hillsong United - The Lost Are Found tab

The Lost Are Found
Guitar 2 Tab


Intro
----------------|----------------|----------------|----------------|
----------------|----------------|----------------|----------------|
8---8---8---8---|8---8---8---8---|8---8---8---8---|6---6---6---6---|
---9---9---9---9|---9---9---9---9|---9---9---9---9|---8---8---8---8|
----------------|----------------|----------------|----------------|
----------------|----------------|----------------|----------------|
Verse
----------------|----------------|----------------|----------------|
----------------|----------------|----------------|----------------|
8---8---8---8---|9---9---9---9---|8---8---8---8---|6---6---6---6---|
---9---9---9---9|---9---9---9---9|---9---9---9---9|---8---8---8---8|
----------------|----------------|----------------|----------------|
----------------|----------------|----------------|----------------|


Pre-Chorus
---------------|---------------|---------------|----------------|
---------------|---------------|---------------|----------------|
--9---9---9---9|--8---8---8---8|-11--11--11--11|--6---6---6---6-|
9---9---9---9--|9---9---9---9--|9---9---9---9--|8---8---8---8---|
---------------|---------------|---------------|----------------|
---------------|---------------|---------------|----------------|

---------------|---------------|---------------|--------|
---------------|---------------|---------------|--------|
--9---9---9---9|--8---8---8---8|-11--11--11--11|-11--11-|
9---9---9---9--|9---9---9---9--|9---9--9---9---|9---9---|
---------------|---------------|---------------|--------|
---------------|---------------|---------------|--------|


1st  Instrumental
-----------|------------|--------|--------|
-----------|------------|--------|--------|
13-13-13-13|-13-13-11-11|-8-8-8-8|-8-3-3-3|
-----------|------------|--------|--------|
-----------|------------|--------|--------|
-----------|------------|--------|--------|
Tap to rate this tab
# A B C D E F G H I J K L M N O P Q R S T U V W X Y Z