Song name
# A B C D E F G H I J K L M N O P Q R S T U V W X Y Z

Hillsong - One Way tab

ok so this is a great band with like 7 guitars but heres the basics of it

one way live


guitar 1 electric

---------------------------------------------------------------------------|
---------------------------------------------------------------------------|
--4---/13-----11-----9-----------------------------------------------------|
--4x16/13x16--11-----9-------2---------------------------------------------|
--2---/11-----9x16---7x8-----2x5-------------------------------------------|
-----------------------/12\\\0---------------------------------------------|


verse1 x2
-----------------------------------------------------------|
----------------------9~~~---------------------------------|
-4---(4)-----------4--9~~~--------9-9----------------------|
-4x16-6x16-4------44--9~~~--------x-xx7--------------------|x2
-2----6----4x11-4444--7~~~--------7-7----------------------|
------4----2---22222--0~~~/12\\\\-0~~~~~~~~~~--------------|
p.m............

chorus
------------------------------------------------------------------|
---------------------------5--------------------------------------|
-4-------------------------4---4-----------------------------9----|
-4x8-4---6-----------2-2-2-2---4x8-4---6---------------7-7-7-7----|
-2---4x8-6x8---2-2-2-2-2-2-2---2---2---4x8-6x8---7-7-7-7-7-7------|
-----2---4-----0-0-0-0-(0)---------2---4---------5-5-5-5(5)-------|

break riff
b-----------------4-5-4-5-4-5-4-5-----------------8-9-8-9-8-9-9\--------------|
g-3-4-3-4-3-4-3-4-----------------3-4-3-4-3-4-3-4-------------9\--------------|


verse2 x2 16th notes
-----------------------------------------------------------|
----------------------9~~~---------------------------------|
-4---(4)-----------4--9~~~--------9-9----------------------|
-4x16-6x16-4------44--9~~~--------x-xx7--------------------|x2
-2----6----4x11-4444--7~~~--------7-7----------------------|
------4----2---22222--0~~~/12\\\\-0~~~~~~~~~~--------------|
p.m............

chorus 8th notes
------------------------------------------------------------------|
---------------------------5--------------------------------------|
-4-------------------------4---4-----------------------------9----|
-4x8-4---6-----------2-2-2-2---4x8-4---6---------------7-7-7-7----|
-2---4x8-6x8---2-2-2-2-2-2-2---2---2---4x8-6x8---7-7-7-7-7-7------|
-----2---4-----0-0-0-0-(0)---------2---4---------5-5-5-5(5)-------|


bridege solo x2  release palm mute second time through...
------------------------------------------------------------------------------|
------------------------------------------------------------------------------|
------------------------------------------------------------------------------|
--------------------------------------4---------------                6-------|
-2x8--------------------------7-------2---4---6---2---6---4---2---7---7-------|
-----2x8-4x8-0x8 4x8-2x8-0x8--0x8------x8-2x8-4x8-0x8-4x8-2x8-0x8-0x4-0x4-----|
pm.........................................................................


outro chorus                               first time   second time
-----------------------------[--------------|---------|--------7-------|
-----------------------------[--------------|---------|--------7-------|
--444------------------------[---4------(4)-|-9-------|-----6~-8-------|
--444--444-------------------[---4x8-4---6--|-9-------|-7---7~-9x50000-|
--222--444--6666666677777777-[---2---4x8-6--|-7x8-----|-7x6-7~-9-------|freak out
-------222--4444444455555555-[-------2---4--|-0-------|-5---5~-7-------|
(------------x2--------------) (----x2---------------------------------|

guitar 2 acoustic

----------------------------------------------------------------------------|
--4-----------------------------5-------------------------------------------|
--4---/4-------  -----1-----4---4-------------------------------------------|
--4x16/6x16--  11-----2-----2---2-------------------------------------------|
--2---/6----  -11x16--2x8---2x2-2x6-----------------------------------------|
-------4-------9------0-----0---0-------------------------------------------|


verse1 x2  rythm is
------------------------|
----x---x---x-----------|
----x---x---x-----------|
-7-7x777x777x77777------|

-7-----------------9~~~--------5---------------------|
-8----4----2-------9~~~--------4---------------------|
-9x16-6x16-4-------9~~~--------2---------------------|x2
-9----6----4x16----7~~~--------2--for 2 bars---------|
-7----4----2-------0~~~--------0~~~~~~~~-------------|


chorus 8th notes   rythm is

---------------------------|
---------------------------|
-4--4--4444----------------|
-2--2--2222----------------|
x2             1st
-------------|------------|---------------------------------------------------------|
-4-----------|-------5----|---------------------------------------------------------|
-4---3---4---|-1-- 4-4----|-------9-------------------------------------------------|
-4x8-4---6---|-2---2-2----|--7-7--7-------------------------------------------------|
-2---4x8-6x8-|-2x4-2-2----|--7-7--7x4---------------2---4-----0---0-0----|--5-5--5--|


verse
chorus
bridge no acoustic

outro chorus same as guitar 1
Tap to rate this tab
 
# A B C D E F G H I J K L M N O P Q R S T U V W X Y Z