Hillsong - Sing To The Lord tab

Sing to the Lord
Hillsong
Album: This Is Our God
By: Ruebon Morgan

Tunning: Standard

INTRO
e|---------------------------------------------------------------------------|
B|--5----7-9-4----5-7-2----5----7-9-4----5-7-12----14\-----------------------|
G|---------------------------------------------------------------------------|
D|---------------------------------------------------------------------------|
A|---------------------------------------------------------------------------|
E|---------------------------------------------------------------------------|

Pre Chorus
e|--9-7----------------------------------------------------------------------|
B|-----9----5----7-9-4----5-4-2--4-5-----------------------------------------|
G|-9-------------------------------------------------------------------------|
D|---------------------------------------------------------------------------|
A|---------------------------------------------------------------------------|
E|---------------------------------------------------------------------------|
Tap to rate this tab
 
# A B C D E F G H I J K L M N O P Q R S T U V W X Y Z