Song name
# A B C D E F G H I J K L M N O P Q R S T U V W X Y Z

Hillsongs - Seek Ye First tab

I added a new part of the intro that i came up with while playing it in church enjoy
Song: seek ye first
Artist Hillsongs

e|------------------------------------------|3x
b|------------------------------------------|
g|------------------------------------------|
d|---2-3-/5----------------3-5-3-2-3-2-0----|
a|-3--------7-5-3-0-3-5-7-----------------3-|
E|------------------------------------------|

e|---2-3-/5---------------3-5-3-2-3-2-0-----|3x
b|-3--------7-5-3-0-3-5-7----------------3--|
g|------------------------------------------|
d|------------------------------------------|
a|------------------------------------------|
E|------------------------------------------|
Tap to rate this tab
 
# A B C D E F G H I J K L M N O P Q R S T U V W X Y Z