Song name
# A B C D E F G H I J K L M N O P Q R S T U V W X Y Z

Hillsongs - From The Inside Out chords

Highlighted       Show chord diagrams
Hillsong

"From The Inside Out"

Standard Tuning


Intro:
F  C  G (3x)
F  C

	(OR)

e|---------------12p--------12-----------------|
B|---------13------------13----13-15-12--------|
G|--12-14h----14------12----------------12-----|
D|---------------------------------------------|
A|---------------------------------------------|
E|---------------------------------------------|   (or two guitars together)

Verse 1:
G          F
A thousand times Iíve failed
             C          G
Still Your mercy remains
             F
And should I stumble again
          C          G
Iím caught in Your grace
     Am
Everlasting
       F                   C          G
Your light will shine when all else fades
        Am
Never ending
     F             C        G  F  C  G  F  C
Your glory goes beyond all fame



F  C  G (3x)
F  C

	(OR)

e|---------------12p--------12-----------------|
B|---------13------------13----13-15-12--------|
G|--12-14h----14------12----------------12-----|
D|---------------------------------------------|
A|---------------------------------------------|
E|---------------------------------------------|   (or two guitars together)



Verse 2:
G           F
Your will above all else
      C
My purpose remains
G          F
The art of losing myself
       C          G
In bringing You praise
     Am
Everlasting
       F                   C          G
Your light will shine when all else fades
      Am
Never ending
     F             C        G
Your glory goes beyond all fame


Chorus 1:
F                      C
In my heart and my soul
                       Am
Lord I give You control
                    G
Consume me from the inside out
    F                      Am
Lord let justice and praise
                 G
Become my embrace
                     Dm
To love You from the inside out (repeat)


F  C  G (3x)
F  C

	(OR)

e|---------------12p--------12-----------------|
B|---------13------------13----13-15-12--------|
G|--12-14h----14------12----------------12-----|
D|---------------------------------------------|
A|---------------------------------------------|
E|---------------------------------------------|   (or two guitars together)


G           F
Your will above all else
      C
My purpose remains
G          F
The art of losing myself
       C          G
In bringing You praise
     Am
Everlasting
       F                   C          G
Your light will shine when all else fades
      Am
Never ending
     F             C        G
Your glory goes beyond all fame



Chorus 1:
F                      C
In my heart and my soul
                       Am
Lord I give You control
                    G
Consume me from the inside out
    F                      Am
Lord let justice and praise
                 G
Become my embrace
                     Dm
To love You from the inside out 
     Am
Everlasting
       F                   C          G
Your light will shine when all else fades
      Am
Never ending
     F             C        G
Your glory goes beyond all fame
           C           F
And the cry of my heart
           G      Am
Is to bring You praise
          F      G
From the inside out
            F      G
Lord my soul cries out


Solo:
--------8--------8------------|
------8--------8--------8-----|
-9h10-----9h10-----9h10-------|(x2)
------------------------------|
------------------------------|
------------------------------|

-------------------------------|
-13-12-------------------------|
-------12-14-14--7-9-9-7-5-7-5-|
-------------------------------|
-------------------------------|
-------------------------------|

------------------------------|
-8-8s10-10s12-12-12s15-15-15--|
------------------------------|
------------------------------|
------------------------------|
------------------------------|

-----12-------12-------12-------12-------15-|
--------13-------13-------13-------13-------|
--14-------14-------14-------14-------14----| (x2)
--------------------------------------------|
--------------------------------------------|
--------------------------------------------|

--------------------------15-------15----17-|
-----12h13p12----12h13p12----12h13----13----|
-14-----------12----------------------------|
--------------------------------------------|
--------------------------------------------|
--------------------------------------------|

	(OR)

Other:
F  C  Am  G  F  Am  G  Dm


Coda:
F                      C
In my heart and my soul
                       Am
Lord I give You control
                    G
Consume me from the inside out
    F                      Am
Lord let justice and praise
                 G
Become my embrace
                     Dm
To love You from the inside out 
F      G        Am
cries out. Everlasting
       F                   C          G
Your light will shine when all else fades
      Am
Never ending
     F             C        G
Your glory goes beyond all fame
           C           F
And the cry of my heart
           G      Am
Is to bring You praise
          F      G
From the inside out
            F      G
Lord my soul cries out
          F      G
From the inside out
             F       G       F
Lord, my soul cries out, Lord
Tap to rate this tab
# A B C D E F G H I J K L M N O P Q R S T U V W X Y Z