Song name
# A B C D E F G H I J K L M N O P Q R S T U V W X Y Z

Him - Your Sweet Six Six Six tab

Here you've got the chords of the song called "Your Sweet Six Six Six".
I've never heard an acoustic version of it before, but I found out the chords and it 
really great.
YOU CAN FIND THE NECESSARY CHORDS AT THE BOTTOM OF THIS PAGE!!!

Here we go...

INTRO:
E---------------|
B---------------|
G---------------|
D---------------|
A--5--4--0--2~--|
E---------------|

After that (If you don't have any clue when to play this, just listen to the song. Start 
the first chord in 0:03):
E--3----2----2----3----2----2----3----2----2--|
B--0----2----3----0----2----3----0----2----3--|
G--0----2----4----0----2----4----0----2----4--|
D--0----4----4----0----4----4----0----4----4--|
A--2----4----2----2----4----2----2----4----2--|
E--3----2----2----3----2----2----3----2----2--|

Then (In the song in 0:14):
E--2----2----2----2----2----0----3------------|
B--3----3----3----3----3----2----0------------|
G--4----4----4----4----4----2----0------------|
D--4----4----4----4----4----2----0------------|
A--2----2----2----2----2----0----2------------|
E--2----2----2----2----2---------3------------|

VERSE:

G            D                 F#m
So there are things you should know

G                   D             F#m
And the distance between us seems to grow

Right here you can play:
E-----------3-----------|
B-----------0-----------|
G-----------0-----------|
D-----------0-----------|
A--5--4--0--2-----------|
E-----------3-----------|

G           D         F#m
But you're holding on strong

G        D                Bm
Oh, how hard it is to let go

Bm
I'm so hard to let go

CHORUS (starting at 0:45):

Bm
I'm waiting for your call

Bm      D                  A                 G or F#m
And I'm ready to take your Six Six Six in my heart

Bm
I'm longing for your touch

Bm    D                 A                 G or F#m
And I welcome you sweet Six Six Six in my heart

G or Bm
Oh, my love

AFTER CHORUS:
E---------------|
B---------------|
G---------------|
D---------------|
A--5--4--0--2~--|
E---------------|

E--3----2----2----3----2----2----3----2----2--|
B--0----2----3----0----2----3----0----2----3--|
G--0----2----4----0----2----4----0----2----4--|
D--0----4----4----0----4----4----0----4----4--|
A--2----4----2----2----4----2----2----4----2--|
E--3----2----2----3----2----2----3----2----2--|

Then:
E--2----2----2----2----2----0----3------------|
B--3----3----3----3----3----2----0------------|
G--4----4----4----4----4----2----0------------|
D--4----4----4----4----4----2----0------------|
A--2----2----2----2----2----0----2------------|
E--2----2----2----2----2---------3------------|

VERSE:

G           D          F#m
I'm losing my faith in you

G          D         F#m
You don't want it to be true

Right here you can play:
E-----------3-----------|
B-----------0-----------|
G-----------0-----------|
D-----------0-----------|
A--5--4--0--2-----------|
E-----------3-----------|

G           D               F#m
But there's nothing you can do

G           D                Bm
And there's no thing you can do

Bm
-Yes, I've lost my faith in you

CHORUS (starting at 2:00):
Bm
I'm waiting for your call

Bm      D                  A                 G or F#m
And I'm ready to take your Six Six Six in my heart

Bm
I'm longing for your touch

Bm    D                 A                 G or F#m
And I welcome you sweet Six Six Six in my heart

G or Bm
Right here in this heart

AFTER CHORUS:
E---------------|
B---------------|
G---------------|
D---------------|
A--5--4--0--2~--|
E---------------|

E--3----2----2----3----2----2----3----2----2----3----2-----|
B--0----2----3----0----2----3----0----2----3----0----2-----|
G--0----2----4----0----2----4----0----2----4----0----2-----|
D--0----4----4----0----4----4----0----4----4----0----4-----|
A--2----4----2----2----4----2----2----4----2----2----4-----|
E--3----2----2----3----2----2----3----2----2----3----2-----|

THEN:
And I know it's too late
                    C#m
Oh my god you're so lonely

CHORUS (not the same as before!):

C#m
I'm waiting for your call

C#m     E                  B                 A
And I'm ready to take your Six Six Six in my heart

C#m
And I'm longing for your touch

C#m   E                  B                 A
And I welcome your sweet Six Six Six in my heart

C#m
I'm running for the phone

C#m     E                  B                 A
And I'm ready to take your Six Six Six in my heart

C#m
Longing for your touch

C#m   E                  B                 A
And I welcome your sweet Six Six Six in my heart

A
Right here in this heart

A
I strenght in my heart

A
Oh, I hear in my heart

OUTRO:
E---------------------|
B---------------------|
G---------------------|
D--2--1---------------|
A--------2--4---------|
E---------------------|

CHORDS:

-----G----  -----D----  -----F#m-----  -----Bm----  -----A-----

E----3-----------2------------2--------------2-----------0-----|
B----0-----------3------------2--------------3-----------2-----|
G----0-----------2------------2--------------4-----------2-----|
D----0-----------0------------4--------------4-----------2-----|
A----2------------------------4--------------2-----------0-----|
E----3------------------------2--------------2-----------------|

----C#m---  -----E----  ------B------

E----------------0------------2------------------|
B----5-----------0------------4------------------|
G----6-----------1------------4------------------|
D----6-----------2------------4------------------|
A----4-----------2------------2------------------|
E----0-----------0-------------------------------|

e-mail: sel_him@gmx.de

...I'm waiting for your call and I'm ready to take
your mails and rates in my computer...
Tap to rate this tab
# A B C D E F G H I J K L M N O P Q R S T U V W X Y Z