Song name
# A B C D E F G H I J K L M N O P Q R S T U V W X Y Z

Himsa - Dominion tab

                                   Dominion                                     
Tab Credit Goes To Al, Not Me.  I just put it in text form as some may want it,
and it has some edits for how I personally play it.

                                                                    Rusty Cooley
               Q.      Q.      Q        W                  
Eb||-------|------------------------|---------------------|
Bb||-------|------------------------|---------------------|
Gb||-------|------------------------|--15b----------------|
Db||-------|------------------------|---------------------|
Ab||-------|--15------17------18----|---------------------|
Eb||-------|------------------------|---------------------|
 
 
   Q.      Q.      Q        Q.      Q.      Q        Q.      Q.      Q     
------------------------|------------------------|------------------------|
------------------------|------------------------|------------------------|
------------------------|--17------15------------|------------------------|
------------------------|------------------18----|------------------------|
--15------17------18----|------------------------|--15------17------18----|
------------------------|------------------------|------------------------|
 
 
   H.             E   E      H          E   S  E.   E   
-------------------------|-----------------------------|
-------------------------|-----------------------------|
--17b------------17--19--|--15b---------L--19-17---15--|
-------------------------|-----------------------------|
-------------------------|-----------------------------|
-------------------------|-----------------------------|
 
 
   S  S  S  S  S  S  S  S  S  S  S  S S  S  S S  
------------------------------------------------|
------------------------------------------------|
--13-17-15-13-12-15-13-12-10-13-12-10-8-12-10-8-|
------------------------------------------------|
------------------------------------------------|
------------------------------------------------|
 
 
   S S  S S  S S  S S  S S  S S  S S  S S  
------------------------------------------|
------------------------------------------|
--12-8---------8-12-8---------8-12-8------|
-------10-8-10--------10-8-10--------10-8-|
------------------------------------------|
------------------------------------------|
 
 
   S  S  S  S  S  S  S  S  S  S  S  S  S  S  S  S  
--------------------------------11-13-15-13-11----|
-----------------------12-13-15----------------15-|
--12-10-12-13-12-10-13----------------------------|
--------------------------------------------------|
--------------------------------------------------|
--------------------------------------------------|
 
 
  S S S S S S S S S S S S S S S S    S S S  S S  S S  S S S  S S  S S  S S  
----------------------------------|----------------------------8-10-8------|
----------------------------------|-----------8---------8-9-11--------11-9-|
--8-5-------5-8-5-------5-8-5-----|--8-7-8-10---10-8-10--------------------|
------6-5-6-------6-5-6-------6-5-|----------------------------------------|
----------------------------------|----------------------------------------|
----------------------------------|----------------------------------------|
 
 
   S S  S S  S S  S S  S S  S S  S S  S S  
------------------------------------------|
------------------------------------------|
--12-8---------8-12-8---------8-12-8------|
-------10-8-10--------10-8-10--------10-8-|
------------------------------------------|
------------------------------------------|
 
 
   S  S  S  S  S  S  S  S  S  S  S  S  S  S  S  S  
--------------------------------11-13-15-13-11----|
-----------------------12-13-15----------------15-|
--12-10-12-13-12-10-13----------------------------|
--------------------------------------------------|
--------------------------------------------------|
--------------------------------------------------|
 
 
                              |-6-|  
  S S S S S S S S S S S S E   S S S  
------------------------------3-4-6-|
------------------------------------|
--8-5-------5-8-5-------5-8b--------|
------6-5-6-------6-5-6-------------|
------------------------------------|
------------------------------------|
 
 
  |-6-| |-6-| |-6-| |-6-| |-6-| |-6-| |-6-| 6    
  S S S S S S S S S S S S S S S S S S S S S E.   
--8-6-4-----------------------------------------|
--------8-6-4-8-6-4-----------------------------|
--------------------8-7-5-7-5-4-----------------|
--------------------------------6-5-3-6-5-3-----|
--------------------------------------------6---|
------------------------------------------------|
 
 
  |-6-| |-6-| |-6-| |-6-| |-6-| |-6-| |-6-| |-6-|  
  S S S S S S S S S S S S S S S S S S S S S S S S  
--------------------------------------------------|
--8-6-4-------------------------------------------|
--------7-5-4-8-7-5-------------------------------|
--------------------6-5-3-8-6-5-------------------|
--------------------------------8-6-5-6-5-3-------|
--------------------------------------------6-4-3-|
 
 
  |-6-| |-6-| |-6-| |-6-| |-6-| |-6-| |-6-| |-6-|  
  S S S S S S S S S S S S S S S S S S S S S S S S  
--------------------------------------------------|
--------------------------------------------------|
--------------------------------------------------|
----------------------------------------5-6-8-6-5-|
------------3-----------3-5-6-5-3-5-6-8-----------|
--6-4-3-4-6---6-4-3-4-6---------------------------|
 
 
   |-6-| |--6-| |--6--|  |--6-|  |--6--|  |--6--|  |--6--|  |--6--|  
   S S S S  S S S  S  S  S S  S  S  S  S  S  S  S  S  S  S  S  S  S  
-----------------------------------------------------11-13-15-16-15-|
--------------------------------------------12-13-15----------------|
--------------7-8-10-12-10-8-13-12-10-12-13-------------------------|
--10-8-6-8-10-------------------------------------------------------|
--------------------------------------------------------------------|
--------------------------------------------------------------------|
 
 
   |--6--|  |--6--|  |--6--|  6  6          6       
   S  S  S  S  S  S  S  S  S  S  H          Q.      
--16-15-13-15-16-15-16-19-16-15--------------------|
--------------------------------18b---------L------|
---------------------------------------------------|
---------------------------------------------------|
---------------------------------------------------|
---------------------------------------------------|
 
 
   S S  S S  S S  S S  S S  S S  S S  S S  
------------------------------------------|
------------------------------------------|
--12-8---------8-12-8---------8-12-8------|
-------10-8-10--------10-8-10--------10-8-|
------------------------------------------|
------------------------------------------|
 
 
   S  S  S  S  S  S  S  S  S  S  S  S  S  S  S  S  
--------------------------------11-13-15-13-11----|
-----------------------12-13-15----------------15-|
--12-10-12-13-12-10-13----------------------------|
--------------------------------------------------|
--------------------------------------------------|
--------------------------------------------------|
 
 
  S S S S S S S S S S S S S S S S    S S S  S S  S S  S S S  S S  S S  S S  
----------------------------------|----------------------------8-10-8------|
----------------------------------|-----------8---------8-9-11--------11-9-|
--8-5-------5-8-5-------5-8-5-----|--8-7-8-10---10-8-10--------------------|
------6-5-6-------6-5-6-------6-5-|----------------------------------------|
----------------------------------|----------------------------------------|
----------------------------------|----------------------------------------|
 
 
   S S  S S  S S  S S  S S  S S  S S  S S  
------------------------------------------|
------------------------------------------|
--12-8---------8-12-8---------8-12-8------|
-------10-8-10--------10-8-10--------10-8-|
------------------------------------------|
------------------------------------------|
 
 
   7  7  7  7  7  7  7  7  7  7  7  7  7  7  7  7  7  7  7  7  7  7  7  7  7  7 
   S  S  S  S  S  S  S  S  S  S  S  S  S  S  S  S  S  S  S  S  S  S  S  S  S  S 
--------------------------------------------16-15-13-15-16-19-16-19-16-15-16-19-
-----------------------15-13-11-13-15-16-15-------------------------------------
--13-12-10-12-13-15-13----------------------------------------------------------
--------------------------------------------------------------------------------
--------------------------------------------------------------------------------
--------------------------------------------------------------------------------
 
 
                              |-6-|  
  S S S S S S S S S S S S E   S S S  
------------------------------3-4-6-|
------------------------------------|
--8-5-------5-8-5-------5-8b--------|
------6-5-6-------6-5-6-------------|
------------------------------------|
------------------------------------|
 
 
  |-6-| |-6-| |-6-| |-6-| |-6-| |-6-| |-6-| 6    
  S S S S S S S S S S S S S S S S S S S S S E.   
--8-6-4-----------------------------------------|
--------8-6-4-8-6-4-----------------------------|
--------------------8-7-5-7-5-4-----------------|
--------------------------------6-5-3-6-5-3-----|
--------------------------------------------6---|
------------------------------------------------|
 
 
  |-6-| |-6-| |-6-| |-6-| |-6-| |-6-| |-6-| |-6-|  
  S S S S S S S S S S S S S S S S S S S S S S S S  
--------------------------------------------------|
--8-6-4-------------------------------------------|
--------7-5-4-8-7-5-------------------------------|
--------------------6-5-3-8-6-5-------------------|
--------------------------------8-6-5-6-5-3-------|
--------------------------------------------6-4-3-|
 
 
  |-6-| |-6-| |-6-| |-6-| |-6-| |-6-| |-6-| |-6-|  
  S S S S S S S S S S S S S S S S S S S S S S S S  
--------------------------------------------------|
--------------------------------------------------|
--------------------------------------------------|
----------------------------------------5-6-8-6-5-|
------------3-----------3-5-6-5-3-5-6-8-----------|
--6-4-3-4-6---6-4-3-4-6---------------------------|
 
 
   |-6-| |--6-| |--6--|  |--6-|  |--6--|  |--6--|  |--6--|  |--6--|  
   S S S S  S S S  S  S  S S  S  S  S  S  S  S  S  S  S  S  S  S  S  
-----------------------------------------------------11-13-15-16-15-|
--------------------------------------------12-13-15----------------|
--------------7-8-10-12-10-8-13-12-10-12-13-------------------------|
--10-8-6-8-10-------------------------------------------------------|
--------------------------------------------------------------------|
--------------------------------------------------------------------|
 
 
   |--6--|  |--6--|  |--6--|                        |--6--|  
   S  S  S  S  S  S  S  S  S  Q      S  S  T  T  S  S  S  S  
--16-15-13-15-16-15-16-19-16-----------------------------11-|
-----------------------------20~----18-20-16-18-15----13----|
---------------------------------------------------12-------|
------------------------------------------------------------|
------------------------------------------------------------|
------------------------------------------------------------|
 
 
   |--6--|  |--6--|  |--6--|  |--6--|  |--6--|  |--6--|       |--6--|  
   S  S  S  S  S  S  S  S  S  S  S  S  S  S  S  S  S  S  E    S  S  S  
--15-11----------------------------15-20-15------------------------15-|
--------13----------------------16----------16------------------16----|
-----------12----------------17----------------17------------15-------|
--------------13----------17----------------------17------------------|
-----------------15-15-18----------------------------18-15~-----------|
----------------------------------------------------------------------|
 
 
   |--6--|  |--6--|  |--6--|  |--6--|  |--6--|  |--6--|  |--6--|  |--6--|  
   S  S  S  S  S  S  S  S  S  S  S  S  S  S  S  S  S  S  S  S  S  S  S  S  
--18-15----------15-20-15----------15-18-15----------15-20-15----------15-|
--------16----16----------16----16----------16----16----------16----16----|
-----------15----------------15----------------15----------------15-------|
--------------------------------------------------------------------------|
--------------------------------------------------------------------------|
--------------------------------------------------------------------------|
 
 
   |--6--|  |--6--|  |--6--|  |--6--|  |--6--|  |--6--|  |--6--|  |--6--|  
   S  S  S  S  S  S  S  S  S  S  S  S  S  S  S  S  S  S  S  S  S  S  S  S  
--13-10----------10-14-10----------10-13-10----------10-14-10----------10-|
--------11----11----------11----11----------11----11----------11----11----|
-----------10----------------10----------------10----------------10-------|
--------------------------------------------------------------------------|
--------------------------------------------------------------------------|
--------------------------------------------------------------------------|
 
 
   |--6--|  |--6--|  |--6--|  |--6--|  |--6--|  |--6--|  |--6--|  |--6--|  
   S  S  S  S  S  S  S  S  S  S  S  S  S  S  S  S  S  S  S  S  S  S  S  S  
--13-10----------10-14-10----------10-13-10----------10-14-10----------10-|
--------12----12----------12----12----------12----12----------12----12----|
-----------10----------------10----------------10----------------10-------|
--------------------------------------------------------------------------|
--------------------------------------------------------------------------|
--------------------------------------------------------------------------|
 
 
   |--6--|  |--6--|  |--6--|  |--6--|  |--6--|  |--6--|  6    |--6--|  
   S  S  S  S  S  S  S  S  S  S  S  S  S  S  S  S  S  S  E.   S  S  S  
--15----------------------------15-20-11-15-11---------------------15-|
-----16----------------------16----------------13---------------16----|
--------17----------------17----------------------12---------15-------|
-----------17----------17----------------------------13---------------|
--------------18-15-18----------------------------------15------------|
----------------------------------------------------------------------|
 
 
   |--6--|  |--6--|  |--6--|  |--6--|  |--6--|  |--6--|  |--6--|  |--6--|  
   S  S  S  S  S  S  S  S  S  S  S  S  S  S  S  S  S  S  S  S  S  S  S  S  
--18-15----------15-20-15----------15-18-15----------------------15-20-15-|
--------16----16----------16----16----------16----------------16----------|
-----------15----------------15----------------15----------15-------------|
--------------------------------------------------17----17----------------|
-----------------------------------------------------18-------------------|
--------------------------------------------------------------------------|
 
 
   |--6--|  |--6--|  |--6--|  |--6--|  |--6--|  |--6--|  |--6--|  |--6--|  
   S  S  S  S  S  S  S  S  S  S  S  S  S  S  S  S  S  S  S  S  S  S  S  S  
--13-10----------10-14-10----------10-13-10----------------------10-13-10-|
--------11----11----------11----11----------11----------------11----------|
-----------10----------------10----------------10----------10-------------|
--------------------------------------------------12----12----------------|
-----------------------------------------------------13-------------------|
--------------------------------------------------------------------------|
 
 
   |--6--|  |--6--|  |--6--|  |--6--|  |--6--|  |--6--|  |--6--|  |--6--|  
   S  S  S  S  S  S  S  S  S  S  S  S  S  S  S  S  S  S  S  S  S  S  S  S  
--13-10----------10-14-10----------10-13-10----------------------10-13-10-|
--------12----12----------12----12----------12----------------12----------|
-----------10----------------10----------------10----------10-------------|
--------------------------------------------------12----12----------------|
-----------------------------------------------------14-------------------|
--------------------------------------------------------------------------|
 
 
   |--6--|  |--6--|  |--6--|  |--6--|  |--6--|  |--6--|  6    |--6--|  
   S  S  S  S  S  S  S  S  S  S  S  S  S  S  S  S  S  S  E.   S  S  S  
--15----------------------------15-20-11-15-11---------------------15-|
-----16----------------------16----------------13---------------16----|
--------17----------------17----------------------12---------15-------|
-----------17----------17----------------------------13---------------|
--------------18-15-18----------------------------------15------------|
----------------------------------------------------------------------|
 
 
   |--6--|  |--6--|  |--6--|  |--6--|  |--6--|  |--6--|  |--6--|  |--6--|  
   S  S  S  S  S  S  S  S  S  S  S  S  S  S  S  S  S  S  S  S  S  S  S  S  
--18-15----------15-20-15----------15-18-15----------15-20-15----------15-|
--------16----16----------16----16----------16----16----------16----16----|
-----------15----------------15----------------15----------------15-------|
--------------------------------------------------------------------------|
--------------------------------------------------------------------------|
--------------------------------------------------------------------------|
 
 
   |--6--|  |--6--|  |--6--|  |--6--|  |--6--|  |--6--|  |--6--|  |--6--|  
   S  S  S  S  S  S  S  S  S  S  S  S  S  S  S  S  S  S  S  S  S  S  S  S  
--13-10----------10-14-10----------10-13-10----------10-14-10----------10-|
--------11----11----------11----11----------11----11----------11----11----|
-----------10----------------10----------------10----------------10-------|
--------------------------------------------------------------------------|
--------------------------------------------------------------------------|
--------------------------------------------------------------------------|
 
 
   |--6--|  |--6--|  |--6--|  |--6--|  |--6--|  |--6--|  |--6--|  |--6--|  
   S  S  S  S  S  S  S  S  S  S  S  S  S  S  S  S  S  S  S  S  S  S  S  S  
--13-10----------10-14-10----------10-13-10----------10-14-10----------10-|
--------12----12----------12----12----------12----12----------12----12----|
-----------10----------------10----------------10----------------10-------|
--------------------------------------------------------------------------|
--------------------------------------------------------------------------|
--------------------------------------------------------------------------|
 
 
   |--6--|  |--6--|  |--6--|  |--6--|  |--6--|  |--6--|  6   |-6-|  
   S  S  S  S  S  S  S  S  S  S  S  S  S  S  S  S  S  S  E.  S S S  
--15----------------------------15-20-11-15-11-------------------5-|
-----16----------------------16----------------13--------------6---|
--------17----------------17----------------------12---------5-----|
-----------17----------17----------------------------13------------|
--------------18-15-18----------------------------------15---------|
-------------------------------------------------------------------|
 
 
  |-6-| |-6-| |-6-| |-6-|  |-6-|  |-6-|  |-6-| |-6-| |-6-| |-6-|  |-6-|  |-6-|  
  S S S S S S S S S S S S  S S S  S S S  S S S S S S S S S S S S  S S S  S S S  
--8-5-------5-8-5-------5-10-7--------7-10-7-------7-8-5-------5-10-7--------7-|
------6---6-------7---7--------9----9--------8---8-------7---7--------9----9---|
--------5-----------8------------10------------7-----------5------------10-----|
-------------------------------------------------------------------------------|
-------------------------------------------------------------------------------|
-------------------------------------------------------------------------------|
 
 
   |--6--|  |--6--|  |--6-|  |--6-|  |-6-|  |-6-|        
   S  S  S  S  S  S  S  S S  S  S S  S S S  S S S Q      
--------------------------------------------------------|
--15-15-13-12-------13-12-9-----------------------------|
--------------13-12---------12-10-8-10-8-7--------------|
-------------------------------------------10-9-6-5~----|
--------------------------------------------------------|
--------------------------------------------------------|
 
 
   S S  S S  S S  S S  S S  S S  S S  S S  
------------------------------------------|
------------------------------------------|
--12-8---------8-12-8---------8-12-8------|
-------10-8-10--------10-8-10--------10-8-|
------------------------------------------|
------------------------------------------|
 
 
   S  S  S  S  S  S  S  S  S  S  S  S  S  S  S  S  
--------------------------------11-13-15-13-11----|
-----------------------12-13-15----------------15-|
--12-10-12-13-12-10-13----------------------------|
--------------------------------------------------|
--------------------------------------------------|
--------------------------------------------------|
 
 
  S S S S S S S S S S S S S S S S    S S S  S S S S  S S S S  S  S  S S S  
----------------------------------|---------------------------------------|
----------------------------------|--------------------9-8-9-11-13-11-9-8-|
--8-5-------5-8-5-------5-8-5-----|--8-7-8-10-8-7-8-10--------------------|
------6-5-6-------6-5-6-------6-5-|---------------------------------------|
----------------------------------|---------------------------------------|
----------------------------------|---------------------------------------|
 
 
   S S  S S  S S  S S  S S  S S  S S  S S  
------------------------------------------|
------------------------------------------|
--12-8---------8-12-8---------8-12-8------|
-------10-8-10--------10-8-10--------10-8-|
------------------------------------------|
------------------------------------------|
 
 
   S  S  S  S  S  S  S  S  S  S  S  S  S  S  S  S  
--------------------------------11-13-15-13-11----|
-----------------------12-13-15----------------15-|
--12-10-12-13-12-10-13----------------------------|
--------------------------------------------------|
--------------------------------------------------|
--------------------------------------------------|
 
 
                              |-6-|  
  S S S S S S S S S S S S E   S S S  
------------------------------3-4-6-|
------------------------------------|
--8-5-------5-8-5-------5-8b--------|
------6-5-6-------6-5-6-------------|
------------------------------------|
------------------------------------|
 
 
  |-6-| |-6-|  |-6-|  |-6-|  |--6-|  |--6-|  |--6--|  6     
  S S S S S S  S S S  S S S  S  S S  S  S S  S  S  S  E.    
--8-6-4----------------------------------------------------|
--------8-6-4----------------------------------------------|
--------------10-8-7---------------------------------------|
---------------------10-9-6-12-10-9------------------------|
------------------------------------11-10-8-14-11-10-------|
-----------------------------------------------------10~---|
 
 
  |-6-| |-6-| |-6-| |-6-| |-6-| |-6-| |-6-| |-6-|  
  S S S S S S S S S S S S S S S S S S S S S S S S  
--------------------------------------------------|
--8-6-4-------------------------------------------|
--------7-5-4-8-7-5-------------------------------|
--------------------6-5-3-8-6-5-------------------|
--------------------------------8-6-5-6-5-3-------|
--------------------------------------------6-4-3-|
 
 
  |-6-| |-6-| |-6-| |-6-| |-6-| |-6-| |-6-| |-6-|  
  S S S S S S S S S S S S S S S S S S S S S S S S  
--------------------------------------------------|
--------------------------------------------------|
--------------------------------------------------|
----------------------------------------5-6-8-6-5-|
------------3-----------3-5-6-5-3-5-6-8-----------|
--6-4-3-4-6---6-4-3-4-6---------------------------|
 
 
   |-6-| |--6-| |--6--|  |--6-|  |--6--|  |--6--|  |--6--|  |--6--|  
   S S S S  S S S  S  S  S S  S  S  S  S  S  S  S  S  S  S  S  S  S  
-----------------------------------------------------11-13-15-16-15-|
--------------------------------------------12-13-15----------------|
--------------7-8-10-12-10-8-13-12-10-12-13-------------------------|
--10-8-6-8-10-------------------------------------------------------|
--------------------------------------------------------------------|
--------------------------------------------------------------------|
 
 
              |--6--|  |--6--|  |--6--|  |--6--|  
   H          S  S  S  S  S  S  S  S  S  S  S  S  
----------------------------------------------11-|
--18b--------20-21-18-20----18-------------13----|
-------------------------20----19-20-17-12-------|
-------------------------------------------------|
-------------------------------------------------|
-------------------------------------------------|
 
 
   |--6--|  |--6--|  |--6--|  |--6--|  |--6--|  |--6--|       |--6--|  
   S  S  S  S  S  S  S  S  S  S  S  S  S  S  S  S  S  S  E    S  S  S  
--15-11----------------------------15-20-15------------------------15-|
--------13----------------------16----------16------------------16----|
-----------12----------------17----------------17------------15-------|
--------------13----------17----------------------17------------------|
-----------------15-15-18----------------------------18-15~-----------|
----------------------------------------------------------------------|
 
 
   |--6--|  |--6--|  |--6--|  |--6--|  |--6--|  |--6--|  |--6--|  |--6--|  
   S  S  S  S  S  S  S  S  S  S  S  S  S  S  S  S  S  S  S  S  S  S  S  S  
--18-15----------15-20-15----------15-18-15----------15-20-15----------15-|
--------16----16----------16----16----------16----16----------16----16----|
-----------15----------------15----------------15----------------15-------|
--------------------------------------------------------------------------|
--------------------------------------------------------------------------|
--------------------------------------------------------------------------|
 
 
   |--6--|  |--6--|  |--6--|  |--6--|  |--6--|  |--6--|  |--6--|  |--6--|  
   S  S  S  S  S  S  S  S  S  S  S  S  S  S  S  S  S  S  S  S  S  S  S  S  
--13-10----------10-14-10----------10-13-10----------10-14-10----------10-|
--------11----11----------11----11----------11----11----------11----11----|
-----------10----------------10----------------10----------------10-------|
--------------------------------------------------------------------------|
--------------------------------------------------------------------------|
--------------------------------------------------------------------------|
 
 
   |--6--|  |--6--|  |--6--|  |--6--|  |--6--|  |--6--|  |--6--|  |--6--|  
   S  S  S  S  S  S  S  S  S  S  S  S  S  S  S  S  S  S  S  S  S  S  S  S  
--13-10----------10-14-10----------10-13-10----------10-14-10----------10-|
--------12----12----------12----12----------12----12----------12----12----|
-----------10----------------10----------------10----------------10-------|
--------------------------------------------------------------------------|
--------------------------------------------------------------------------|
--------------------------------------------------------------------------|
 
 
   |--6--|  |--6--|  |--6--|  |--6--|  |--6--|  |--6--|  6    |--6--|  
   S  S  S  S  S  S  S  S  S  S  S  S  S  S  S  S  S  S  E.   S  S  S  
--15----------------------------15-20-11-15-11---------------------15-|
-----16----------------------16----------------13---------------16----|
--------17----------------17----------------------12---------15-------|
-----------17----------17----------------------------13---------------|
--------------18-15-18----------------------------------15------------|
----------------------------------------------------------------------|
 
 
   |--6--|  |--6--|  |--6--|  |--6--|  |--6--|  |--6--|  |--6--|  |--6--|  
   S  S  S  S  S  S  S  S  S  S  S  S  S  S  S  S  S  S  S  S  S  S  S  S  
--18-15----------15-20-15----------15-18-15----------------------15-20-15-|
--------16----16----------16----16----------16----------------16----------|
-----------15----------------15----------------15----------15-------------|
--------------------------------------------------17----17----------------|
-----------------------------------------------------18-------------------|
--------------------------------------------------------------------------|
 
 
   |--6--|  |--6--|  |--6--|  |--6--|  |--6--|  |--6--|  |--6--|  |--6--|  
   S  S  S  S  S  S  S  S  S  S  S  S  S  S  S  S  S  S  S  S  S  S  S  S  
--13-10----------10-14-10----------10-13-10----------------------10-13-10-|
--------11----11----------11----11----------11----------------11----------|
-----------10----------------10----------------10----------10-------------|
--------------------------------------------------12----12----------------|
-----------------------------------------------------13-------------------|
--------------------------------------------------------------------------|
 
 
   |--6--|  |--6--|  |--6--|  |--6--|  |--6--|  |--6--|  |--6--|  |--6--|  
   S  S  S  S  S  S  S  S  S  S  S  S  S  S  S  S  S  S  S  S  S  S  S  S  
--13-10----------10-14-10----------10-13-10----------------------10-13-10-|
--------12----12----------12----12----------12----------------12----------|
-----------10----------------10----------------10----------10-------------|
--------------------------------------------------12----12----------------|
-----------------------------------------------------14-------------------|
--------------------------------------------------------------------------|
 
 
   |--6--|  |--6--|  |--6--|  |--6--|  |--6--|  |--6--|  6    |--6--|  
   S  S  S  S  S  S  S  S  S  S  S  S  S  S  S  S  S  S  E.   S  S  S  
--15----------------------------15-20-11-15-11---------------------15-|
-----16----------------------16----------------13---------------16----|
--------17----------------17----------------------12---------15-------|
-----------17----------17----------------------------13---------------|
--------------18-15-18----------------------------------15------------|
----------------------------------------------------------------------|
 
 
   |--6--|  |--6--|  |--6--|  |--6--|  |--6--|  |--6--|  |--6--|  |--6--|  
   S  S  S  S  S  S  S  S  S  S  S  S  S  S  S  S  S  S  S  S  S  S  S  S  
--18-15----------15-20-15----------15-18-15----------15-20-15----------15-|
--------16----16----------16----16----------16----16----------16----16----|
-----------15----------------15----------------15----------------15-------|
--------------------------------------------------------------------------|
--------------------------------------------------------------------------|
--------------------------------------------------------------------------|
 
 
   |--6--|  |--6--|  |--6--|  |--6--|  |--6--|  |--6--|  |--6--|  |--6--|  
   S  S  S  S  S  S  S  S  S  S  S  S  S  S  S  S  S  S  S  S  S  S  S  S  
--13-10----------10-14-10----------10-13-10----------10-14-10----------10-|
--------11----11----------11----11----------11----11----------11----11----|
-----------10----------------10----------------10----------------10-------|
--------------------------------------------------------------------------|
--------------------------------------------------------------------------|
--------------------------------------------------------------------------|
 
 
   |--6--|  |--6--|  |--6--|  |--6--|  |--6--|  |--6--|  |--6--|  |--6--|  
   S  S  S  S  S  S  S  S  S  S  S  S  S  S  S  S  S  S  S  S  S  S  S  S  
--13-10----------10-14-10----------10-13-10----------10-14-10----------10-|
--------12----12----------12----12----------12----12----------12----12----|
-----------10----------------10----------------10----------------10-------|
--------------------------------------------------------------------------|
--------------------------------------------------------------------------|
--------------------------------------------------------------------------|
 
 
   |--6--|  |--6--|  |--6--|  |--6--|  |--6--|  |--6--|  6   |-6-|  
   S  S  S  S  S  S  S  S  S  S  S  S  S  S  S  S  S  S  E.  S S S  
--15----------------------------15-20-11-15-11-------------------5-|
-----16----------------------16----------------13--------------6---|
--------17----------------17----------------------12---------5-----|
-----------17----------17----------------------------13------------|
--------------18-15-18----------------------------------15---------|
-------------------------------------------------------------------|
 
 
  |-6-| |-6-| |-6-| |-6-|  |-6-| |-6-|  |-6-|  |-6-|  |--6-|  |--6-|  |-6-| |-6-
  S S S S S S S S S S S S  S S S S S S  S S S  S S S  S S  S  S  S S  S S S S S 
--8-5-------5-8-5-------5-10-7-------7-10-7--------7-11-8----------8-10-7-------
------6---6-------7---7--------8---8--------9----9--------10----10--------8---8-
--------5-----------5------------7------------10-------------11-------------7---
--------------------------------------------------------------------------------
--------------------------------------------------------------------------------
--------------------------------------------------------------------------------
 
 
   |--6--|  |--6--|  |--6-|  |--6-|  |-6-|  |-6-|        
   S  S  S  S  S  S  S  S S  S  S S  S S S  S S S Q      
--------------------------------------------------------|
--15-15-13-12-------13-12-9-----------------------------|
--------------13-12---------12-10-8-10-8-7--------------|
-------------------------------------------10-9-6-9b----|
--------------------------------------------------------|
--------------------------------------------------------|
 
 
  7  7  7 7  7  7  7  7  7  7  7  7  7  7  7  7  7  7   7  --- |--6--|  6  6  
  S  S  S S  S  S  S  S  S  S  S  S  S  S  S  S  S  E   E   S  S  S  S  S  S  
------------------------10-13----------13-------13-16--19--19-16-------------|
----------9-12-------12-------------15-------15------------------18----------|
-------10------10-13----------13-16-------16------------------------19----19-|
--9-12-----------------------------------------------------------------18----|
-----------------------------------------------------------------------------|
-----------------------------------------------------------------------------|
 
 
   |--6--|  |--6--|  |--6--|  |--6--|  
   S  S  S  S  S  S  S  S  S  S  S  S  
--19-16----------------------16-19-16-|
--------18----------------18----------|
-----------19-16-------19-------------|
-----------------18-18----------------|
--------------------------------------|
--------------------------------------|
 
 
   |--6--|  |--6--|  |--6--|  |--6--| |--6-| |--6-| |-6-| |-6-|  
   S  S  S  S  S  S  S  S  S  S  S  S S  S S S  S S S S S S S S  
--13-16-13-------------------10-13-10-7-10-7--------------4-7-4-|
-----------15-------------12-----------------9----------6-------|
--------------16-------13----------------------10-----7---------|
-----------------15-12----------------------------9-6-----------|
----------------------------------------------------------------|
----------------------------------------------------------------|
 
 
   7   7  7   7   7 7  7   7  7   7   7 7   7   7   7   7   7  7  7  7  7  7  7 
   S   S  S   S   S S  S   S  S   S   S S   S   S   S   S   S  S  S  S  S  S  S 
--------------------------------------------------------------16-19-22-19-------
--------------------9-------------------9h-12h-15p-12h-15h-18-------------18----
-----------------------------------------------------------------------------19-
--15p-12p-9h-12h-15---15p-12p-9h-12h-15-----------------------------------------
--------------------------------------------------------------------------------
--------------------------------------------------------------------------------
 
 
   7  7  7  7  7  7  7  7  7  7  7  7  7  7  7  7  7  7  7  7  7  7  7  7  7  7 
   S  S  S  S  S  S  S  S  S  S  S  S  S  S  S  S  S  S  S  S  S  S  S  S  S  S 
--22-19----------19-22-19-------------------------------------------------------
--------21----21----------21-18----------18-21-18----------18-21-18-------------
-----------22-------------------19----19----------19----19----------19-16-------
-----------------------------------21----------------21-------------------18----
-----------------------------------------------------------------------------20-
--------------------------------------------------------------------------------
 
 
   |---6--|   |--6--|  |---6--|   |--6--|  
   S   S  S   S   S S  S   S  S   S   S S  
------------------------------------------|
--------------------9-------------------9-|
------------------------------------------|
--15p-12p-9h-12h-15---15p-12p-9h-12h-15---|
------------------------------------------|
------------------------------------------|
 
 
   |--6--|  |--6--|  |--6--|  |--6--|  |--6--|  |--6--|  |--6--|  |--6--|  
   S  S  S  S  S  S  S  S  S  S  S  S  S  S  S  S  S  S  S  S  S  S  S  S  
-----------16-19-16-------16-13-------------------------------------------|
--12-15-18----------18-15-------15----15----------------------------------|
-----------------------------------16----16-------------------------------|
--------------------------------------------18----18-------18-------------|
-----------------------------------------------20----20-17----17----17-14-|
-----------------------------------------------------------------16-------|
 
 
   Q      Q      Q      Q      
------------------------------|
------------------------------|
----------------13~----16~----|
--12~----15~------------------|
------------------------------|
------------------------------|
 
 
   E    T  T  S  E    T  T  T  E    T  T  S. Q         S  S  S  S  S  S  S  S  
-------15------------15------------15--------------|--18-15----15-------------|
--17b-----18-15-18~-----18-15-17b-----18-15-18~----|--------18----18-15----15-|
---------------------------------------------------|--------------------18----|
---------------------------------------------------|--------------------------|
---------------------------------------------------|--------------------------|
---------------------------------------------------|--------------------------|
 
 
   S  S  S  S  S  S  S  S  S  S  S  S  S  S  S  S  
--------------------------------------------------|
--------------------------------------------------|
--17-16-15----15----------------------------------|
-----------15----17-15----------------------------|
-----------------------17-16-17-15----------17-15-|
-----------------------------------18-15-13-------|
 
 
   S  S  S  S  S  S  S  S  S  S  S  S  S  S  S  S  
--------------------------------------------18-15-|
--------------------------------15----18-15-------|
-----------------------15-18-17----18-------------|
-----------------15-17----------------------------|
--------15-16-17----------------------------------|
--15-18-------------------------------------------|
 
 
   |--6--|  |--6--|  |--6--|  |--6--|  |--6--|  |--6--|  |--6--|  |--6--|  
   S  S  S  S  S  S  S  S  S  S  S  S  S  S  S  S  S  S  S  S  S  S  S  S  
--18-17-18-15-------------------------------------------------------------|
--------------18-15-------15-18-20-18-15----------15----------------------|
--------------------17-18----------------18-17-18----17-15----------------|
-----------------------------------------------------------17-15-------15-|
-----------------------------------------------------------------16-17----|
--------------------------------------------------------------------------|
 
 
                                           |--6--|  |--6--|  
   E   S  S  S  S  S  S     H.             S  S  S  S  S  S  
------------------------|-----------------------------------|
------------------------|--------------------------12-15--L-|
------------------------|-----------------------13----------|
------------------------|-----------------12-15-------------|
--15--------------------|-----------------------------------|
------18-15-18-19-20-18-|--15~------------------------------|
 
 
   |--6--|  |--6--|  |--6--|  |--6--|  |--6--|  6  6  6       |-6-| 6  
   S  S  S  S  S  S  S  S  S  S  S  S  S  S  S  S  S  Q.      X X X X  
--------------13-16----------16-19-22----------19-22-24b--------------|
--15-------15-------------18----------------21------------------------|
-----13-16----------16-19-------------19-22---------------------------|
----------------------------------------------------------------------|
----------------------------------------------------------------------|
----------------------------------------------------------------------|
 
 
   S  S  S  S  S  S  S  S  S  S  S  S  Q      
--------------------------11-10--------------|
--------------11-10-------------11-10--------|
-----------12-------12-11-------------12b----|
--------12-----------------------------------|
--10-13--------------------------------------|
---------------------------------------------|
 
 
   S  S  S  S  S  S  S  S  H          
-------------------------------------|
--------------11-10------------------|
-----------12-------12-11-10b--------|
--------12---------------------------|
--10-13------------------------------|
-------------------------------------|
 
 
   S  S  S  S  S  S  S  S  S  S  S  S  Q      
--------------------------11-10--------------|
--------------11-10-------------11-10--------|
-----------12-------12-11-------------12b----|
--------12-----------------------------------|
--10-13--------------------------------------|
---------------------------------------------|
 
 
   S  S  S  S  S  S  S  S  S  S  S  S  Q      
---------------------------------------------|
--------------11-10--------------------------|
-----------12-------12-11-10-11-12-14-12b----|
--------12-----------------------------------|
--10-13--------------------------------------|
---------------------------------------------|
 
 
   S  S  S  S  S  S  S  S  S  S  S  S  S  S  S  S  
--------------------------16-15-------20-19-16-15-|
--------------16-15-------------16-15-------------|
-----------17-------17-16-------------------------|
--------17----------------------------------------|
--15-18-------------------------------------------|
--------------------------------------------------|
 
 
   S  S  S  S  S  S  S  S  S  S  S  S  S  S  S  S  
--------------------------------------19-18-17-16-|
--16-15-------------------------------------------|
--------17-16-------------------------------------|
--------------18-17-15-16-17-18-17-16-------------|
--------------------------------------------------|
--------------------------------------------------|
 
 
   S  S  S  S  S  S  S  S  S  S  S  S  S  S  S  S  
--15-16-19-15-16----15----------------------------|
-----------------18----16-18-15-16----15----------|
-----------------------------------17----16-17----|
-----------------------------------------------18-|
--------------------------------------------------|
--------------------------------------------------|
 
 
   S  S  S  S  S  S  S  S  S  S  S  S  Q      
---------------------------------------------|
---------------------------------------------|
--16-----------------------------------------|
-----17-18-15-17----15-----------------------|
-----------------18----17-18-15-17-14-15b----|
---------------------------------------------|
 
 
   S  S  S  S  S  S  S  S  S  S  S  S  Q      
--------------------------11-10--------------|
--------------11-10-------------11-10--------|
-----------12-------12-11-------------12b----|
--------12-----------------------------------|
--10-13--------------------------------------|
---------------------------------------------|
 
 
   S  S  S  S  S  S  S  S  H          
-------------------------------------|
--------------11-10-------10---------|
-----------12-------12-11-10b--------|
--------12---------------------------|
--10-13------------------------------|
-------------------------------------|
 
 
   S  S  S  S  S  S  S  S  S  S  S  S  Q      
--------------------------11-10--------------|
--------------11-10-------------11-10--------|
-----------12-------12-11-------------12b----|
--------12-----------------------------------|
--10-13--------------------------------------|
---------------------------------------------|
 
 
                                     T                                  T       
                                 |---6---|                          |---6---|   
   T   T   T  T   T   T  T   T   T   T   T   T   T  T   T   T   T   T   T   T   
------------------------10h-13h-15h-17p-15p-13p-10------------------------------
--------------------------------------------------------------------------------
-------------10h-12h-15----------------------------15p-12p-10h-12h-15h-17p-15p-1
--------------------------------------------------------------------------------
--10h-13h-15--------------------------------------------------------------------
--------------------------------------------------------------------------------
 
 
   S  S  S  S  S  S  S  S  S  S  S  S  S  S  S  S  
--------------------------16-15-------15-14-------|
--------------16-15-------------16-15-------16-15-|
-----------17-------17-16-------------------------|
--------17----------------------------------------|
--15-18-------------------------------------------|
--------------------------------------------------|
 
 
   S  S  S  S  S  S  S  S  S  S  S  S  S  S  S  S  
--------------15-16-15-14-15----------------------|
-----15-16-18----------------16-15----------------|
--17-------------------------------17-------------|
--------------------------------------18-15-16-17-|
--------------------------------------------------|
--------------------------------------------------|
 
 
                                             |--6--|  
   S  S  S  S  S  S  S  S  S  S  S  S  S  S  S  S  S  
--------------16-15-19-15-20-16-------------20-22-20-|
-----15-16-18-------------------18-16-15-16----------|
--17-------------------------------------------------|
-----------------------------------------------------|
-----------------------------------------------------|
-----------------------------------------------------|
 
 
   |--6--|  |--6--|  |--6--|  |--6--|  |---6---|   |---6---|   
   S  S  S  S  S  S  S  S  S  S  S  S  E   E   E   E   E   E   
--19-20-22-20-19-20-22-20-19-20-22-20-19--20--22--23--22--23--|
--------------------------------------------------------------|
--------------------------------------------------------------|
--------------------------------------------------------------|
--------------------------------------------------------------|
--------------------------------------------------------------|
 
 
                    PM           
                        |--6--|  
   H          Q     E   S  S  S  
--23b--------22----19--16-15-16-|
--------------------------------|
--------------------------------|
--------------------------------|
--------------------------------|
--------------------------------|
 
 
               |--6--|  |--6--|      6       6    
   S  S  S  S  S  S  S  S  S  Q      Q.      E.   
--15----15---------------------------------------|
-----18----18-16-18-16-15------------------------|
--------------------------17-16b-----L-------L---|
-------------------------------------------------|
-------------------------------------------------|
-------------------------------------------------|
 
 
   |-6-|  |--6--|  |--6--|  |--6--|  |--6--|  |--6--|  |--6--|  |--6--|  
   E   S  S  S  S  S  S  S  S  S  S  S  S  S  S  S  S  S  S  S  S  S  S  
------------------------------------------------------------------------|
------------------------------------------------------------------------|
--13--12-13-12----12----------------12-13-12----------12-13-12----------|
---------------15----15-13-12-13-15----------15-13-15----------15-13-12-|
------------------------------------------------------------------------|
------------------------------------------------------------------------|
 
 
   |--6--|  |--6--|  |--6--|                  
   S  S  S  S  S  S  S  S  S  Q.       Q      
---------------------------------------------|
---------------------------------------------|
--------------12-----------------------------|
-----12-13-15----15-13-12--------------------|
--15----------------------15-14b------15b----|
---------------------------------------------|
 
 
   |--6--|  |--6--|  |--6--|  |--6--|  |--6--|  |--6--|  |--6--|  |--6--|  
   S  S  S  S  S  S  S  S  S  S  S  S  S  S  S  S  S  S  S  S  S  S  S  S  
--13-10----------10-15-10----------10-13-10----------------------10-13-10-|
--------12----12----------12----12----------12----------------12----------|
-----------10----------------10----------------10----------10-------------|
--------------------------------------------------12----12----------------|
-----------------------------------------------------14-------------------|
--------------------------------------------------------------------------|
 
 
   |--6--|  |--6--|  |--6--|  |--6--|  |--6--|  |--6--|  |--6--|  |--6--|  
   S  S  S  S  S  S  S  S  S  S  S  S  S  S  S  S  S  S  S  S  S  S  S  S  
--15-11----------11-16-11----------11-15-11----------------------11-15-11-|
--------13----13----------13----13----------13----------------13----------|
-----------12----------------12----------------12----------12-------------|
--------------------------------------------------13----13----------------|
-----------------------------------------------------15-------------------|
--------------------------------------------------------------------------|
 
 
   |-6-| |-6-|  |-6-| |-6-|  |-6-| |--6--|  |-6-| |--6-|  
   S S S S S S  S S S S S S  S S S S  S  S  S S S S  S S  
--11-8-------8-13-8-------8-11-8------------------8-11-8-|
-------9---9--------9---9--------9--------------9--------|
---------8------------8------------8----------8----------|
-------------------------------------10----10------------|
----------------------------------------11---------------|
---------------------------------------------------------|
 
 
   |--6--|  |--6--|  |--6--|  |--6--|  |--6--|  |--6--|       |--6--|  
   S  S  S  S  S  S  S  S  S  S  S  S  S  S  S  S  S  S  E    S  S  S  
--15-11----------------------------15-20-15------------------------15-|
--------13----------------------16----------16------------------16----|
-----------12----------------17----------------17------------15-------|
--------------13----------17----------------------17------------------|
-----------------15-15-18----------------------------18-15~-----------|
----------------------------------------------------------------------|
 
 
   |--6--|  |--6--|  |--6--|  |--6--|  |--6--|  |--6--|  |--6--|  |--6--|  
   S  S  S  S  S  S  S  S  S  S  S  S  S  S  S  S  S  S  S  S  S  S  S  S  
--18-15----------15-20-15----------15-18-15----------15-20-15----------15-|
--------16----16----------16----16----------16----16----------16----16----|
-----------15----------------15----------------15----------------15-------|
--------------------------------------------------------------------------|
--------------------------------------------------------------------------|
--------------------------------------------------------------------------|
 
 
   |--6--|  |--6--|  |--6--|  |--6--|  |--6--|  |--6--|  |--6--|  |--6--|  
   S  S  S  S  S  S  S  S  S  S  S  S  S  S  S  S  S  S  S  S  S  S  S  S  
--13-10----------10-14-10----------10-13-10----------10-14-10----------10-|
--------11----11----------11----11----------11----11----------11----11----|
-----------10----------------10----------------10----------------10-------|
--------------------------------------------------------------------------|
--------------------------------------------------------------------------|
--------------------------------------------------------------------------|
 
 
   |--6--|  |--6--|  |--6--|  |--6--|  |--6--|  |--6--|  |--6--|  |--6--|  
   S  S  S  S  S  S  S  S  S  S  S  S  S  S  S  S  S  S  S  S  S  S  S  S  
--13-10----------10-14-10----------10-13-10----------10-14-10----------10-|
--------12----12----------12----12----------12----12----------12----12----|
-----------10----------------10----------------10----------------10-------|
--------------------------------------------------------------------------|
--------------------------------------------------------------------------|
--------------------------------------------------------------------------|
 
 
   |--6--|  |--6--|  |--6--|  |--6--|  |--6--|  |--6--|  6    |--6--|  
   S  S  S  S  S  S  S  S  S  S  S  S  S  S  S  S  S  S  E.   S  S  S  
--15----------------------------15-20-11-15-11---------------------15-|
-----16----------------------16----------------13---------------16----|
--------17----------------17----------------------12---------15-------|
-----------17----------17----------------------------13---------------|
--------------18-15-18----------------------------------15------------|
----------------------------------------------------------------------|
 
 
   |--6--|  |--6--|  |--6--|  |--6--|  |--6--|  |--6--|  |--6--|  |--6--|  
   S  S  S  S  S  S  S  S  S  S  S  S  S  S  S  S  S  S  S  S  S  S  S  S  
--18-15----------15-20-15----------15-18-15----------------------15-20-15-|
--------16----16----------16----16----------16----------------16----------|
-----------15----------------15----------------15----------15-------------|
--------------------------------------------------17----17----------------|
-----------------------------------------------------18-------------------|
--------------------------------------------------------------------------|
 
 
   |--6--|  |--6--|  |--6--|  |--6--|  |--6--|  |--6--|  |--6--|  |--6--|  
   S  S  S  S  S  S  S  S  S  S  S  S  S  S  S  S  S  S  S  S  S  S  S  S  
--13-10----------10-14-10----------10-13-10----------------------10-13-10-|
--------11----11----------11----11----------11----------------11----------|
-----------10----------------10----------------10----------10-------------|
--------------------------------------------------12----12----------------|
-----------------------------------------------------13-------------------|
--------------------------------------------------------------------------|
 
 
   |--6--|  |--6--|  |--6--|  |--6--|  |--6--|  |--6--|  |--6--|  |--6--|  
   S  S  S  S  S  S  S  S  S  S  S  S  S  S  S  S  S  S  S  S  S  S  S  S  
--13-10----------10-14-10----------10-13-10----------------------10-13-10-|
--------12----12----------12----12----------12----------------12----------|
-----------10----------------10----------------10----------10-------------|
--------------------------------------------------12----12----------------|
-----------------------------------------------------14-------------------|
--------------------------------------------------------------------------|
 
 
   |--6--|  |--6--|  |--6--|  |--6--|  |--6--|  |--6--|  6    |--6--|  
   S  S  S  S  S  S  S  S  S  S  S  S  S  S  S  S  S  S  E.   S  S  S  
--15----------------------------15-20-11-15-11---------------------15-|
-----16----------------------16----------------13---------------16----|
--------17----------------17----------------------12---------15-------|
-----------17----------17----------------------------13---------------|
--------------18-15-18----------------------------------15------------|
----------------------------------------------------------------------|
 
 
   |--6--|  |--6--|  |--6--|  |--6--|  |--6--|  |--6--|  |--6--|  |--6--|  
   S  S  S  S  S  S  S  S  S  S  S  S  S  S  S  S  S  S  S  S  S  S  S  S  
--18-15----------15-20-15----------15-18-15----------15-20-15----------15-|
--------16----16----------16----16----------16----16----------16----16----|
-----------15----------------15----------------15----------------15-------|
--------------------------------------------------------------------------|
--------------------------------------------------------------------------|
--------------------------------------------------------------------------|
 
 
   |--6--|  |--6--|  |--6--|  |--6--|  |--6--|  |--6--|  |--6--|  |--6--|  
   S  S  S  S  S  S  S  S  S  S  S  S  S  S  S  S  S  S  S  S  S  S  S  S  
--13-10----------10-14-10----------10-13-10----------10-14-10----------10-|
--------11----11----------11----11----------11----11----------11----11----|
-----------10----------------10----------------10----------------10-------|
--------------------------------------------------------------------------|
--------------------------------------------------------------------------|
--------------------------------------------------------------------------|
 
 
   |--6--|  |--6--|  |--6--|  |--6--|  |--6--|  |--6--|  |--6--|  |--6--|  
   S  S  S  S  S  S  S  S  S  S  S  S  S  S  S  S  S  S  S  S  S  S  S  S  
--13-10----------10-14-10----------10-13-10----------10-14-10----------10-|
--------12----12----------12----12----------12----12----------12----12----|
-----------10----------------10----------------10----------------10-------|
--------------------------------------------------------------------------|
--------------------------------------------------------------------------|
--------------------------------------------------------------------------|
 
 
   |--6--|  |--6--|  |--6--|  |--6--|  |--6--|  |--6--|  6   |-6-|  
   S  S  S  S  S  S  S  S  S  S  S  S  S  S  S  S  S  S  E.  S S S  
--15----------------------------15-20-11-15-11---------------------|
-----16----------------------16----------------13------------------|
--------17----------------17----------------------12---------------|
-----------17----------17----------------------------13------------|
--------------18-15-18----------------------------------15---------|
-------------------------------------------------------------------|
 
 
   Q.       E    E   E   E   E      Q.       E    E   E   E   E   
--16b------15b---L--------------|--13b---------------------------|
--------------------16--15--16--|-----------16~---L--15--13--15--|
--------------------------------|--------------------------------|
--------------------------------|--------------------------------|
--------------------------------|--------------------------------|
--------------------------------|--------------------------------|
 
 
   Q.       E    E   E   E   E      Q.       Q     E   E   E   
--------------------------------|-----------------------------|
--16b------15~---L--13--12--13--|--15b------13----12----------|
--------------------------------|---------------------13--12--|
--------------------------------|-----------------------------|
--------------------------------|-----------------------------|
--------------------------------|-----------------------------|
 
 
   Q.       E    E   E   E   E      Q.       E    E   E   E   E   
--16b------15b---L--------------|--13b---------------------------|
--------------------16--15--16--|-----------16~---L--15--13--15--|
--------------------------------|--------------------------------|
--------------------------------|--------------------------------|
--------------------------------|--------------------------------|
--------------------------------|--------------------------------|
 
 
   Q.       E    E   E   E   E      Q.       Q     E   E   E   
--------------------------------|-----------------------------|
--16b------15~---L--13--12--13--|--15b------13----12----------|
--------------------------------|---------------------13--12--|
--------------------------------|-----------------------------|
--------------------------------|-----------------------------|
--------------------------------|-----------------------------|
 
 
   Q.       E    E   E   E   E      Q.       E    E   E   E   E   
--16b------15b---L--------------|--13b---------------------------|
--------------------16--15--16--|-----------16~---L--15--13--15--|
--------------------------------|--------------------------------|
--------------------------------|--------------------------------|
--------------------------------|--------------------------------|
--------------------------------|--------------------------------|
 
 
   Q.       E    E   E   E   E      Q.       Q     E   E   E   
--------------------------------|-----------------------------|
--16b------15~---L--13--12--13--|--15b------13----12----------|
--------------------------------|---------------------13--12--|
--------------------------------|-----------------------------|
--------------------------------|-----------------------------|
--------------------------------|-----------------------------|
 
 
                                     T                                  T       
   |---6---|  |---6---|  |---6---|   |---6---|   |---6--|   |---6---|   |---6-- 
   S   S   S  S   S   S  S   S   S   S   S   S   S  S   S   S   S   S   S   S   
------------------------10h-13h-15h-18p-15p-13p-10------------------------------
--------------------------------------------------------------------------------
-------------10h-12h-15----------------------------15p-12p-10h-12h-15h-17p-15p-1
--------------------------------------------------------------------------------
--10h-13h-15--------------------------------------------------------------------
--------------------------------------------------------------------------------
 
 
               T                                                     T          
   |---6---|   |---6---|   |---6---|  |---6---|  |---6---|   |---6---|   |---6- 
   S   S   S   S   S   S   S   S   S  S   S   S  S   S   S   S   S   S   S   S  
------------------------------------------------10h-13h-15p-13h-15h-18p-15p-13p-
--------------------------------------------------------------------------------
-------------------------------------10h-12h-15---------------------------------
--------------------------------------------------------------------------------
--10h-13h-15h-17p-15p-13p-10h-13h-15--------------------------------------------
--------------------------------------------------------------------------------
 
 
   7   7   7   7   7   7   7  7   7   7   7   7   7   7  7   7   7   7   7   7  
   S   S   S   S   S   S   S  S   S   S   S   S   S   S  S   S   S   S   S   S  
--------------------------------------------------------15p-13p-10h-13h-15p-13p-
--------------------------------------------------------------------------------
-----------------------------10h-12h-15p-12p-10h-12p-10-------------------------
--------------------------------------------------------------------------------
--10h-13h-15p-13p-10h-13h-15----------------------------------------------------
--------------------------------------------------------------------------------
 
 
   7   7   7   7   7   7   7  7   7   7   7   7   7   7  7   7   7   7   7   7  
   S   S   S   S   S   S   S  S   S   S   S   S   S   S  S   S   S   S   S   S  
--------------------------------------------------------15p-13p-10h-13h-15p-13p-
--------------------------------------------------------------------------------
-----------------------------10h-12h-15p-12p-10h-12p-10-------------------------
--------------------------------------------------------------------------------
--10h-13h-15p-13p-10h-13h-15----------------------------------------------------
--------------------------------------------------------------------------------
 
 
   W                   
---------------------||
---------------------||
--12b----------------||
---------------------||
---------------------||
---------------------||
 
 
 
 
Duration Legend
---------------
W - whole
H - half
Q - quarter
E - 8th
S - 16th
T - 32nd
X - 64th
. - note dotted
|-n-|  - n-tuplets
 
 
Tablature Legend
----------------
L - tied note
x - dead note
g - grace note
(n) - ghost note
> - accentuded note
NH - natural harmonic
AH - artificial harmonic
TH - tapped harmonic
SH - semi harmonic
PH - pitch harmonic
h - hammer on
p - pull off
b - bend
br - bendRelease
pb - preBend
pbr - preBendRelease
brb - bendReleaseBend
\n/ - tremolo bar dip
\n - tremolo bar dive
-/n - tremolo bar Release up
/n\ - tremolo bar inverted dip
/n - tremolo bar return
-\n - tremolo bar Release down
S - shift slide
s - legato slide
/ -  slide into from below or out of upwards
\ -  slide into from above or out of downwards
~ - vibrato
W - wide vibrato
tr - tril'
TP - tremolo picking
T - tapping
S - slap
P - pop
< - fade in
^ - brush up
v - brush down



Tap to rate this tab
# A B C D E F G H I J K L M N O P Q R S T U V W X Y Z