Song name
# A B C D E F G H I J K L M N O P Q R S T U V W X Y Z

Hinder - Lips Of An Angel Acoustic chords

Highlighted       Show chord diagrams
So there were not that many tabs for the acoustic version of Hinder's "Lips of an 
Angel1' so I decided to post my own.  None of the tabs I found sounded %100 
accurate so I combined elements from a few of them and posted them.  For the 
chords, listen to the strumming pattern on the track and copy that.
Also for the solo, I was unable to find the complete thing, but these chords sound 
close enough to pass.
Enjoy!


INTRO
	Asus4 		Bm7		Gsus2		D
E|------------------|-----------------|----------------|-----------------|
B|-----------3------|----------3------|----------------|---------3-------|
G|---2----2----2---2|--4----4----4---4|---------7------|-------2---2---2-|
D|---2-----------2--|--4-----------4--|--7----7---7---7|--0----------0---|
A|---0--------------|--2--------------|--5----------5--|--0--------------|
D|------------------|-----------------|--5-------------|--0--------------|

VERSE
	Asus4 		Bm7		Gsus2		D
E|------------------|-----------------|----------------|-----------------|
B|-----------3------|----------3------|----------------|---------3-------|
G|---2----2----2---2|--4----4----4---4|---------7------|-------2---2---2-|
D|---2-----------2--|--4-----------4--|--7----7---7---7|--0----------0---|
A|---0--------------|--2--------------|--5----------5--|--0--------------|
D|------------------|-----------------|--5-------------|--0--------------|
					x4 (on the 4th time strum Gsus2 and don’t play D)
“Honey why you calling me so late?
It's kinda hard to talk right now.
Honey why are you crying? Is everything okay?
I gotta whisper 'cause I can't be too loud”

PRE-CHORUS
        D          Asus4            Bm7
   “Well my girl's in the next room.
            Gsus2              D
Sometimes I wish she was you
           Asus4              Bm7     Gsus2
I guess we never really moved on”


CHORUS
                       D               Asus4
“It's really good to hear your voice sayin my name.
      Csus2     G5
It sounds so sweet.
                  D                 Asus4
Comin from the lips of an angel, hearin those words.
      Csus2    G5
It makes me weak.
       Bm7                    Asus4
And I never wanna say good-bye,
	E5                               F#5   G5
But girl, you make it hard to be faithful,
                       
With the lips of an angel.”


BRIDGE
    Bm7         Asus4        Gsus2        D
e|---2---0---2-------2---3---2----2---0---2-----5-2-0~|
B|-3---3---3---3---3---3---3---3----3---3---3---------|
G|----------------------------------------------------|
D|----------------------------------------------------|
A|----------------------------------------------------|
D|----------------------------------------------------|
	       (One guitar strums the chords above, and the other plays the tab part)**

VERSE
	Asus4 		Bm7			Gsus2		D
E|--------------------|-------------------|------------------|-------------------|
B|-------------3------|------------3------|------------------|-----------3-------|
G|---2----2------2---2|--4----4------4---4|-----------7------|-------2-----2---2-|
D|---2-------------2--|--4-------------4--|--7----7-----7---7|--0------------0---|
A|---0----------------|--2----------------|--5------------5--|--0----------------|
D|--------------------|-------------------|--5---------------|--0----------------|
					x4 (on the 4th time strum Gsus2 and don’t play D)
“It's funny that you're calling me tonight
And, yes, I've dreamt of you too
And does he know you're talking to me will it start a fight
No I don't think she has a clue”

PRE-CHORUS
        D           Asus4            Bm7
   “Well my girl's in the next room.
            Gsus2              D
Sometimes I wish she was you
           Asus4              Bm7    Gsus2
I guess we never really moved on”


CHORUS
                       D              Asus4
“It's really good to hear your voice sayin my name.
      Csus2     G5
It sounds so sweet.
                  D                 Asus4
Comin from the lips of an angel, hearin those words.
      Csus2    G5
It makes me weak.
       Bm7                    Asus4
And I never wanna say good-bye,
	E5                               F#5   G5
But girl, you make it hard to be faithful,
                       Bb5
With the lips of an angel.”


SOLO

C5 D5 Bb5 C5 D5 Bb5 C5
Bb5 C5 A5


CHORUS
                       D              Asus4
   “It's really good to hear your voice sayin my name.
      Csus2     Gsus2
   It sounds so sweet.
                  D                 Asus4
   Comin from the lips of an angel, hearin those words.
      Csus2    G5
   It makes me weak.
       Bm7                    Asus4
   And I never wanna say good-bye,
  	   E5                               F#5   G5
   But girl, you make it hard to be faithful,
                       Bm7			
   With the lips of an angel.  
			Asus4
   I never want to say goodbye.
 
	   E5                               F#5   G5

   But girl you make it hard to be faithful
                       Bm7     Asus4     Gsus2~~
   With the lips of an angel”

OUTRO
	Asus4 		Bm7		Gsus2		D
E|------------------|-----------------|----------------|---2~~----------|
B|-----------3------|----------3------|----------------|---3~~----------|
G|---2----2----2---2|--4----4----4---4|---------7------|---2~~----------|
D|---2-----------2--|--4-----------4--|--7----7---7---7|---0~~----------|
A|---0--------------|--2--------------|--5----------5--|----------------|
D|------------------|-----------------|--5-------------|----------------|
            "Honey why are you calling me so late"



**I recommend the guitarist who plays the verse plays the chords while the other 
guitarist plays the tab part.  This is because it is easier to switch into the verse.
Tap to rate this tab
# A B C D E F G H I J K L M N O P Q R S T U V W X Y Z