Song name
# A B C D E F G H I J K L M N O P Q R S T U V W X Y Z

Hirax - Blind Faith tab

Band:  Hirax
Album: Hate, Fear and Power
Song:  Blind Faith

Copyright (c)  (Metal Blade) (1986)
Version 1.0 - (05/02/07)


Transcribed By: Steve
Email:          stephen.elvidge1@ntlworld.com


.  - palm mute           /  - slide up to
\  - slide down to       ~  - vibrato
h  - hammer on           b  - Bend
p  - pull off            Suffixes for bend
t  - tap                 f  - full bend    h - half bend
ph - pinched harmonic    q  - quarter bend t - tap bend
*  - see comment         ^  - Hold bend    r release bend
x  - Stuccatto           ~  - vibrato bend
,  - slight palm mute    () - ghost note, sustained note
"  - tremolo note        <> - harmonic
pb - pre bend

Tuning E A D G B E

 Intro

  PM   PM   PM   PM   PM   PM   PM   PM
|------------------------------------------|
|------------------------------------------|
|------------------------------------------|
|------------------------------------------|
|----4----5----4----5----4----5----4----3--|
|-00-2-00-3-00-2-00-3-00-2-00-3-00-2-00-1--| Rpt 4 X

  PM   PM   PM   PM  
|-----------------------|
|-----------------------|
|-----------------------|
|-----------------------|
|----3----4----5----6\3-|
|-00-1-00-2-00-3-00-4\1-|

    PM   PM   PM     
|--------------------|
|--------------------|
|--------------------|
|--------------------|
|-3----4----5----6\3-|
|-1-00-2-00-3-00-4\1-| Rpt 2 X

    PM   PM   PM     
|--------------------|
|--------------------|
|--------------------|
|--------------------|
|-3----4----5----6-6-|
|-1-00-2-00-3-00-4-4-|


  [---------------------PM--------------------]
|-----------------------------------------------|
|-----------------------------------------------|
|-----------------------------------------------|
|-----------------------------------------------|
|-----------------------------------------------|
|-0-0-0-0-0-0-0-0-0-0-0-0-0-0-0-0-0-0-0-0-0-0-0-| Rpt

 Main Riff

   [-------PM------] [-------PM------] [-------PM------]  [PM]
|-------------------------------------------------------------------|
|-------------------------------------------------------------------|
|-------------------------------------------------------------------|
|-2-----------------5-----------------7-----------------8-----5/7/8-|
|-2-----------------3-----------------5-----------------6-----3/5/6-|
|-0-0-0-0-0-0-0-0-0---0-0-0-0-0-0-0-0---0-0-0-0-0-0-0-0---0-0-------|

   [-------PM------] [-------PM------] [-------PM------]  [PM]
|-------------------------------------------------------------------|
|-------------------------------------------------------------------|
|-------------------------------------------------------------------|
|-9-----------------5-----------------7-----------------8-----5/7/8-|
|-7-----------------3-----------------5-----------------6-----3/5/6-|
|---0-0-0-0-0-0-0-0---0-0-0-0-0-0-0-0---0-0-0-0-0-0-0-0---0-0-------| Rpt 7 X

|---|
|---|
|---|
|-9-|
|-7-|
|---|

   [----PM----]     [----PM----]   [--PM--]
|-------------------------------------------------------|
|-------------------------------------------------------|
|-------------------------------------------------------|
|---------------5---------------7\6---------4/5-5/7-5\4-|
|-4-------------3-4-------------5\4---------2/3-3/5-3\2-|
|-2-2-2-2-2-2-2---2-2-2-2-2-2-2-----2-2-2-2-------------|

 Guitar 1
   [----PM----]     [----PM----]   [--PM--]
[-------------------------------------------------------|
[-------------------------------------------------------|
[-------------------------------------------------------|
[---------------5---------------7-----------------------|
[-4-------------3-4-------------5-4---------2-3-3-5-3-2-|
[-2-2-2-2-2-2-2---2-2-2-2-2-2-2---2-2-2-2-2-------------|
[Guitar 2
[-------------------------------------------------------|
[-------------------------------------------------------|
[-------------------------------------------------------|
[---------------5---------------7-----------------------|
[-4-------------3-4-------------5-4---------------------|
[-2---------------2---------------2---------------------|


   [----PM----]     [----PM----]   [--PM--]
|-------------------------------------------------------|
|-------------------------------------------------------|
|-------------------------------------------------------|
|---------------5---------------7-----------4/5-5/7-5\4-|
|-4-------------3-4-------------5-4---------2/3-3/5-3\2-|
|-2-2-2-2-2-2-2---2-2-2-2-2-2-2---2-2-2-2-2-------------| Rpt 6 X

    [-----PM-----]    PM
|------------------------------|
|------------------------------|
|-----------------------3--3---|
|-----------------5\4---3--3---|
|-2---------------3\2---1--1---|
|-0-0-0-0-3p0-0-0-----3--------| Rpt 8 X

 [------------PM------------]     PM    [--PM--] [--PM-] [-PM--]
|---------------------------------------------------------------|
|---------------------------------------------------------------|
|---------------------------------------------------------------|
|---------------------------------------------------------------|
|-----------------------------5\4---4/5---------5-------6-------|
|-0-0-0-0-0-0-0-0-0-0-0-0-0-0-3\2-0-2/3-0-0-0-0-3-0-0-0-4-0-0-0-|

 Guitar 1
      PM    [--PM--] [--PM-] [-PM--]
[------------------------------------|
[------------------------------------|
[------------------------------------|
[------------------------------------|
[-5\4---4/5---------5-------6--------|
[-3\2-0-2/3-0-0-0-0-3-0-0-0-4-0-0-0--|
[ Guitar 2
[                    [--PM-] [-PM--]  
[------------------------------------|
[------------------------------------|
[------------------------------------|
[------------------------------------|
[-------------------5-------6--------|
[-------------------3-0-0-0-4-0-0-0--|

      PM    [--PM--] [--PM-] [-PM--]
|------------------------------------|
|------------------------------------|
|------------------------------------|
|------------------------------------|
|-5\4---4/5---------5-------6--------|
|-3\2-0-2/3-0-0-0-0-3-0-0-0-4-0-0-0--| Rpt 12 X 

 Rpt Main Riff 2 X



END

Tap to rate this tab
# A B C D E F G H I J K L M N O P Q R S T U V W X Y Z