Song name
# A B C D E F G H I J K L M N O P Q R S T U V W X Y Z

Hives - Blackjack tab

Tabbed by: chrtes

Email: capslock44107@yahoo.com

Tuning: EADgbe


| /  slide up
| \  slide down
| h  hammer-on
| p  pull-off
| ~  vibrato
| +  harmonic
| x  Mute note
| b  Bend




e|-------------------------------------------|1x
B|-------------------------------------------|
G|-------------------------------------------|
D|--------3-1-------6-6-6----3-1-------------|
A|--3--1-------3h4---------1----------3------|
E|--------------------------------4-4---6-4--|




e|----------------------------------------------|3x
B|----------------------------------------------|
G|----------------------------------------------|
D|----3-1-------6-6-6----3-1--------------3--1--|
A|--1------3h4---------1---------3-----1--------|
E|---------------------------4-4---6-4----------|



e|----6---9---6---9--11--9------|2x
B|----6---9---6---9--11--9------|
G|------------------------------|
D|------------------------------|
A|------------------------------|
E|------------------------------|



e|---------------------------|
B|----------14-------13------|
G|-------15-------14---------|
D|----16-------15------------|
A|---------------------------|
E|---------------------------|




e|----6---9---6---9--11--9------|2x
B|----6---9---6---9--11--9------|
G|------------------------------|
D|------------------------------|
A|------------------------------|
E|------------------------------|



e|-----------------|
B|-----------------|
G|----6---5--------|
D|----6---5--------|
A|----4---3--------|
E|-----------------|



e|-----------------------------------------------|2x
B|-----------------------------------------------|
G|-----------------------------------------------|
D|--3--3--3---6--5--4----3--3--3---6--8--6-------|
A|--3--3--3---6--5--4----3--3--3---6--8--6-------|
E|--1--1--1---4--3--2----1--1--1---4--6--4-------|



e|---------------------------------------------|2x
B|---------------------------------------------|
G|--3--3--3---6--5--4----3--3--3---6--8--6-----|
D|--3--3--3---6--5--4----3--3--3---6--8--6-----|
A|--1--1--1---4--3--2----1--1--1---4--6--4-----|
E|---------------------------------------------|



e|-----------------|
B|-----------------|
G|----6---5--------|
D|----6---5--------|
A|----4---3--------|
E|-----------------|



e|----------------------------------------------|2x
B|----------------------------------------------|
G|----------------------------------------------|
D|----3-1-------6-6-6----3-1--------------3--1--|
A|--1------3h4---------1---------3-----1--------|
E|---------------------------4-4---6-4----------|



e|----6---9---6---9--11--9------|2x
B|----6---9---6---9--11--9------|
G|------------------------------|
D|------------------------------|
A|------------------------------|
E|------------------------------|



e|---------------------------|
B|----------14-------13------|
G|-------15-------14---------|
D|----16-------15------------|
A|---------------------------|
E|---------------------------|



e|----6---9---6---9--11--9------|2x
B|----6---9---6---9--11--9------|
G|------------------------------|
D|------------------------------|
A|------------------------------|
E|------------------------------|



e|-----------------|
B|-----------------|
G|----6---5--------|
D|----6---5--------|
A|----4---3--------|
E|-----------------|



e|-----------------------------------------------|2x
B|-----------------------------------------------|
G|-----------------------------------------------|
D|--3--3--3---6--5--4----3--3--3---6--8--6-------|
A|--3--3--3---6--5--4----3--3--3---6--8--6-------|
E|--1--1--1---4--3--2----1--1--1---4--6--4-------|



e|---------------------------------------------|2x
B|---------------------------------------------|
G|--3--3--3---6--5--4----3--3--3---6--8--6-----|
D|--3--3--3---6--5--4----3--3--3---6--8--6-----|
A|--1--1--1---4--3--2----1--1--1---4--6--4-----|
E|---------------------------------------------|




e|-----------------|
B|-----------------|
G|----6---5--------|
D|----6---5--------|
A|----4---3--------|
E|-----------------|



solo

e|------------------------------------9---------------------------------------------------|
B|---6--6-6-6-6-6-6--6--6b----9h11-11------9h11-11-----------------------14-14-14-14-14---|
G|--------------------------------------10---------9b-9-9---------------------------------|
D|---------------------------------------------------------8-8-8-8-8-8-8------------------|
A|----------------------------------------------------------------------------------------|
E|----------------------------------------------------------------------------------------|





e|-----------------------------------|
B|----------14-------13-------3------|
G|-------15-------14-----10---3------|
D|----16-------15--------8----1------|
A|-----------------------------------|
E|-----------------------------------|




e|----------------------------------------------|4x
B|----------------------------------------------|
G|----------------------------------------------|
D|----3-1-------6-6-6----3-1--------------3--1--|
A|--1------3h4---------1---------3-----1--------|
E|---------------------------4-4---6-4----------|



e|----6---9---6---9--11--9------|2x
B|----6---9---6---9--11--9------|
G|------------------------------|
D|------------------------------|
A|------------------------------|
E|------------------------------|



e|---------------------------|
B|----------14-------13------|
G|-------15-------14---------|
D|----16-------15------------|
A|---------------------------|
E|---------------------------|



e|-----------------|
B|-----------------|
G|----6---5--------|
D|----6---5--------|
A|----4---3--------|
E|-----------------|



e|-----------------------------------------------|2x
B|-----------------------------------------------|
G|-----------------------------------------------|
D|--3--3--3---6--5--4----3--3--3---6--8--6-------|
A|--3--3--3---6--5--4----3--3--3---6--8--6-------|
E|--1--1--1---4--3--2----1--1--1---4--6--4-------|



e|---------------------------------------------|2x
B|---------------------------------------------|
G|--3--3--3---6--5--4----3--3--3---6--8--6-----|
D|--3--3--3---6--5--4----3--3--3---6--8--6-----|
A|--1--1--1---4--3--2----1--1--1---4--6--4-----|
E|---------------------------------------------|




e|------------0----|
B|------------0----|
G|----6---5---0----|
D|----6---5---0----|
A|----4---3--------|
E|-----------------|
Tap to rate this tab
# A B C D E F G H I J K L M N O P Q R S T U V W X Y Z