Song name
# A B C D E F G H I J K L M N O P Q R S T U V W X Y Z

Hizaki Grace Project - Race Wish Live tab

                                Race Wish(live)                                 


                                                            HIZAKI GRACE PROJECT
Lead Guitar



     Score by SAKER           *This song is in D# tuning originally            
     W                        W                                                
E||-------------------|----|----------------------------------------|----|----|
B||-------------------|----|----------------------------------------|----|----|
G||-------------------|----|----------------------------------------|----|----|
D||-------------------|----|----------------------------------------|----|----|
A||-------------------|----|----------------------------------------|----|----|
E||-------------------|----|----------------------------------------|----|----|


       Really a messy tab, but plz enjoy :P                                     
       W                                                                        
----|---------------------------------------|----|----|----|----|----|----|----|
----|---------------------------------------|----|----|----|----|----|----|----|
----|---------------------------------------|----|----|----|----|----|----|----|
----|---------------------------------------|----|----|----|----|----|----|----|
----|---------------------------------------|----|----|----|----|----|----|----|
----|---------------------------------------|----|----|----|----|----|----|----|


                 E.  S Q.     E  E  E     E.   S H        E  S S  
----|----|----|------------------7-----|-------------------------|
----|----|----|------------------------|-------------------------|
----|----|----|--8---9-8------8-----8--|--8S---6-6--------L--3-4-|
----|----|----|------------------------|-------------------------|
----|----|----|------------------------|-------------------------|
----|----|----|------------------------|-------------------------|


  E.  S Q.     E  E  E     E.   S Q.     E  E  E     E.  S Q.     E  E  E   
------------------6-----|-------------------------|------------------7-----|
------4-----------------|-------------------------|------------------------|
--6-----6------6-----6--|--6S---4-4------3--4--6--|--8---9-8------8-----8--|
------------------------|-------------------------|------------------------|
------------------------|-------------------------|------------------------|
------------------------|-------------------------|------------------------|


  E.   S H        E  S S    E.  S Q.     E  E  E     E.   S Q.     E  E  E   
-------------------------|------------------6-----|-------------------------|
-------------------------|------4-----------------|-------------------------|
--8S---6-6--------L--3-4-|--6-----6------6-----6--|--6S---4-4------3--4--6--|
-------------------------|------------------------|-------------------------|
-------------------------|------------------------|-------------------------|
-------------------------|------------------------|-------------------------|


                            |--3--|                      
  E.  S E.  S E.  S Q       E  E  E  E  S S E.   S Q     
-------------------------|------------------------------|
-------------------------|-----------4----4-5S---4-4----|
--4-----4---6-4---3------|--------------6---------------|
--------------------4----|--5-----5---------------------|
------7------------------|-----6------------------------|
-------------------------|------------------------------|


  E.  S E.  S Q    Q       W                   E  E  E  E  E  E  E  E   
------------------------|-------------------|--------------------------|
--------4---5-4---------|-------------------|--------------------------|
--4---6------------3----|--4----------------|--8--9--8--6--8--6--------|
------------------------|-------------------|--------------------9--8--|
------------------------|-------------------|--------------------------|
------------------------|-------------------|--------------------------|


  E  E  E  E  E  E  E  E     E  E  E  E  E  E  E  E   
--------------------------|--------------------------|
--------------------------|--------7-----------------|
-----------------------6--|--8--9-----9--8--6--------|
--9--8--6--5--6--8--9-----|--------------------9--8--|
--------------------------|--------------------------|
--------------------------|--------------------------|


  E  E  E  E  E  E  E   E      E   E   E   E   E   E   E   E   
---------------------------|------11------11------11------11--|
--------------7--8--9--11--|----------14------12------11------|
-----6--8--9---------------|----------------------------------|
--9------------------------|--13------------------------------|
---------------------------|----------------------------------|
---------------------------|----------------------------------|


   E   E   E   E   E   E   E   E      E   E   E   E   E   E   E   E   
------11------11------11------11--|--12--11--------------------------|
----------14------12------11------|----------14--12--11--------------|
--13------------------------------|----------------------13--12--13--|
----------------------------------|----------------------------------|
----------------------------------|----------------------------------|
----------------------------------|----------------------------------|


   E   E   E   E   H           E  E  E  E  E  E  E  E   
----------------------------|--------------------------|
--11------------------------|--------------------------|
------13--12----------------|--8--9--8--6--8--6--------|
--------------14--13--------|--------------------9--8--|
----------------------------|--------------------------|
----------------------------|--------------------------|


  E  E  E   E  E  E  E  E     E  E  E  E  E  E  E  E   
---------------------------|--------------------------|
---------------------------|--------7-----------------|
------------------------6--|--8--9-----9--8--6--------|
--9--8--6------6--8--9-----|--------------------9--8--|
-----------10--------------|--------------------------|
---------------------------|--------------------------|


  E  E  E  E  E  E  E   E      E   E   E   E   E   E   E   E   
---------------------------|------11------11------11------11--|
--------------7--8--9--11--|----------14------12------11------|
-----6--8--9---------------|----------------------------------|
--9------------------------|--13------------------------------|
---------------------------|----------------------------------|
---------------------------|----------------------------------|


   E   E   E   E   E   E   E   E      E   E   E   E   E   E   E   E   
------11------11------11------11--|--12--11--------------------------|
----------14------12------11------|----------14--12--11--------------|
--13------------------------------|----------------------13--12--13--|
----------------------------------|----------------------------------|
----------------------------------|----------------------------------|
----------------------------------|----------------------------------|


   E   E   E   E   H           Q.     E  S S S  S  S S  S  S  
----------------------------|--------------------------------|
--11------------------------|--9---------9-8-9-11-12-9-11-12-|
------13--12----------------|---------8----------------------|
--------------14--13--------|--------------------------------|
----------------------------|--------------------------------|
----------------------------|--------------------------------|


  S  S  S  S  S  S  S S  S  S S S S S  S S    S  S S S S  S E  E.  E.  E   
--x-11-12-11-------------------------------|------------------------------|
-------------12-11------11-----------------|------------------------------|
-------------------12-8----12-9-8-9-8------|--8---------------------------|
--------------------------------------11-9-|----11-9-8-9-11-8--6---8---6--|
-------------------------------------------|------------------------------|
-------------------------------------------|------------------------------|


  S  S  S  S  S  S  S  S H           E.  S  S  S E  S S S S S S S S  
----------------------------------|---------------------------------|
----------------------------------|---------------------------------|
----------------------------------|---------------------------------|
--5h-6p-5h-6p-5h-6p-5h-6----------|--6---5h-6p-5----6---------------|
-------------------------6--------|--------------7----7-6-4-6-4-6-7-|
----------------------------------|---------------------------------|


  S S S S S S S S S  S  S S  S S S S  
-------------------------------------|
------------------9-12-11-9-11-9-8-9-|
----------------8--------------------|
--6-8-9-6-9-6-8----------------------|
-------------------------------------|
-------------------------------------|


             |-----5----|                                                       
  S  S  S S  S S  S  S  S  S  S  S  S  S  S  S  S     E   E   E   E   H         
--------------------------12-11-------------------|--12--16--15--12--11--------|
--9-11-12-9-12-9-11-12-14-------11-12-11----------|----------------------------|
-----------------------------------------13-12-13-|----------------------------|
--------------------------------------------------|----------------------------|
--------------------------------------------------|----------------------------|
--------------------------------------------------|----------------------------|


                           |---3---|   |---3--|   
   S  S  S  S  S  S  S  S  E   E   E   E   E  E   
--12-11-------11---------------------------------|
--------14-12----14-12-11-11--12--11-------------|
--------------------------------------13--11--9--|
-------------------------------------------------|
-------------------------------------------------|
-------------------------------------------------|


  E.  E.  E  S S S  S  S S  S  S    S  S  S S  S S S  S E.  E.   E   
---------------------------------|--9-11-12-9-----------------------|
------9------9---9-11-12-9-11-12-|------------11-9-8-11-8---9---11--|
--8-------8----8-----------------|----------------------------------|
---------------------------------|----------------------------------|
---------------------------------|----------------------------------|
---------------------------------|----------------------------------|


  E.  S S S S S H           Q.     Q.     E   E     Q.     Q.     Q     
-------------------------|-----------------------|---------------------|
--9---8-9-8-9-8----------|-----------------------|---------7------4----|
----------------8--------|--3------4------4S--6--|--6------------------|
-------------------------|-----------------------|---------------------|
-------------------------|-----------------------|---------------------|
-------------------------|-----------------------|---------------------|


   S S S S  S S  S S  E.   E.   E      E   E   E   E   H          
--19-------16---18---21---19---18--|------11------11--12b--------|
-----4-4-4----4----4---------------|----------14-----------------|
-----------------------------------|--13-------------------------|
-----------------------------------|-----------------------------|
-----------------------------------|-----------------------------|
-----------------------------------|-----------------------------|


  E  Q    E  Q    Q       E  Q    E  H           E  Q    E  E   E  E   E   
-----------------------|----------------------|---------------------------|
------------------7----|----------------------|---------------------------|
--8--6----6--6---------|--8--6----6--6--------|--8--6----6--6S--4--4S--3--|
-----------------------|----------------------|---------------------------|
-----------------------|----------------------|---------------------------|
-----------------------|----------------------|---------------------------|


  Q.      E  H           E  Q    E  Q    Q       S S Q    E  E  Q    E   
----------------------|-----------------------|-------------------------|
----------------------|------------------7----|--5-7-4----5--4----------|
--3S------4--4--------|--8--6----6--6---------|-----------------7----8--|
----------------------|-----------------------|-------------------------|
----------------------|-----------------------|-------------------------|
----------------------|-----------------------|-------------------------|


  E    E   E   Q.      E   E        E.    E.   E   E    Q     E   
------------------------------|----------------------------------|
--9S--12--11----------11--12--|--<>12b---12---11--12S--16----16--|
--------------13--------------|----------------------------------|
------------------------------|----------------------------------|
------------------------------|----------------------------------|
------------------------------|----------------------------------|


   E   E   E   Q.      Q        E   E   E   Q.      Q     
----------------------------|----------------------------|
--11--12--11----------12----|--12--14--12--11------------|
--------------13------------|----------------------11----|
----------------------------|----------------------------|
----------------------------|----------------------------|
----------------------------|----------------------------|


   Q.      Q.      Q        H          Q    E   E      H         E.   E.   E   
--14------14------------|--------------------------|--------------------------|
------------------11----|--12--------/12----9--11--|--12--------14---12---11--|
------------------------|--------------------------|--------------------------|
------------------------|--------------------------|--------------------------|
------------------------|--------------------------|--------------------------|
------------------------|--------------------------|--------------------------|


   E.   S  S  S  E   E   Q.         W                     Q.      Q.      Q     
------------------------14------|--12b----------------|------------------------|
--12---11-12-11-----------------|---------------------|--11------12------14----|
----------------11--11----------|---------------------|------------------------|
--------------------------------|---------------------|------------------------|
--------------------------------|---------------------|------------------------|
--------------------------------|---------------------|------------------------|


                            TP                              TP    TP    TP    
   Q.     E  Q     Q        H         H            E    E   Q     Q     Q     
------------------------|----------------------|-----------------------------|
------------------------|----------------------|-----------------------------|
------------------/8----|------------11--------|--11S--16--16----15----13----|
--/9---------9----------|--11------------------|-----------------------------|
----------9-------------|----------------------|-----------------------------|
------------------------|----------------------|-----------------------------|


                                    TP    TP   TP    
   Q    E   E  H           E    E   Q     Q    Q     
------------------------|---------------------------|
------------------------|---------------------------|
--15----LS--8--8--------|--8S--13--13----11----9----|
------------------------|---------------------------|
------------------------|---------------------------|
------------------------|---------------------------|


   Q    E   E  Q    E   E     H.           Q     
---------------------------|--------------------|
---------------------------|--------------------|
--11----LS--4--4----LS--8--|--6------------6----|
---------------------------|--------------------|
---------------------------|--------------------|
---------------------------|--------------------|


  S S S S S S S S S S S S S S E      Q.     E  Q     Q     
------------------4--------------|------------------------|
------------4-5-7---7-5-4--------|------------------------|
------3-4-6---------------6-4-3--|------------------/8----|
--4-6----------------------------|--/9---------9----------|
---------------------------------|----------9-------------|
---------------------------------|------------------------|


   TP                              TP    TP    TP                             
   H         H            E    E   Q     Q     Q        Q    E   E  H         
----------------------|-----------------------------|------------------------|
----------------------|-----------------------------|------------------------|
------------11--------|--11S--16--16----15----13----|--15----LS--8--8--------|
--11------------------|-----------------------------|------------------------|
----------------------|-----------------------------|------------------------|
----------------------|-----------------------------|------------------------|


           TP    TP   TP                                                    
  E    E   Q     Q    Q        Q    E   E  Q    E   E     W                 
---------------------------|---------------------------|-------------------|
---------------------------|---------------------------|-------------------|
--8S--13--13----11----9----|--11----LS--4--4----LS--8--|--6----------------|
---------------------------|---------------------------|-------------------|
---------------------------|---------------------------|-------------------|
---------------------------|---------------------------|-------------------|


  H          H            H.           Q       Q    E  Q.     Q     
----------------------|---------------------|----------------------|
----------------------|----------------9----|--7-------------------|
--6--------<>6--------|--/8-----------------|-------6--6------6----|
----------------------|---------------------|----------------------|
----------------------|---------------------|----------------------|
----------------------|---------------------|----------------------|


            TP   TP                                        TP   TP    
   H        Q    Q        Q.      E  H            H        Q    Q     
----------------------|-----------------------|----------------------|
----------------------|-----------------------|----------------------|
--/9--------8----6----|--/8S------4--4--------|--/9--------8----6----|
----------------------|-----------------------|----------------------|
----------------------|-----------------------|----------------------|
----------------------|-----------------------|----------------------|


   Q.      E  Q.     E      H.            Q       Q.     Q.     S S S S  
-------------------------|---------------------|--4---------------------|
-------------------------|---------------------|---------7------5-7-5-4-|
--/8S------4--4------6b--|--6------------/6----|------------------------|
-------------------------|---------------------|------------------------|
-------------------------|---------------------|------------------------|
-------------------------|---------------------|------------------------|


  E    E   Q     E.   E.   E      Q.     E  E   E  E  E   
------------------------------|--------------------------|
--5S--12--12----12---11---12--|--11------7--7S--4--4--5--|
------------------------------|--------------------------|
------------------------------|--------------------------|
------------------------------|--------------------------|
------------------------------|--------------------------|


                                                |--3--|  |--3--|              
  Q.     S S E.  E.  E     H.           Q       E  E  E  E  E  E  E.  E.  E   
------------------------|--------------------|--------------------4---6---7--|
--7------7-7-7---5---4--|--------------------|-----------4--5--7-------------|
------------------------|--4------------4----|--3--4--6----------------------|
------------------------|--------------------|-------------------------------|
------------------------|--------------------|-------------------------------|
------------------------|--------------------|-------------------------------|


   E.  E.  E  E    Q.          W                     Q.      Q.      Q     
--/9---7---6--------------|---------------------|-------------------------|
--------------7--<>7------|--<>7----------------|--/11------12------14----|
--------------------------|---------------------|-------------------------|
--------------------------|---------------------|-------------------------|
--------------------------|---------------------|-------------------------|
--------------------------|---------------------|-------------------------|


   Q.      E  S S  S  S  S  E.      E.   E.   E   E.   E.   E   
---------------------------14---|--14---12---11--11---12---14--|
--12-----------------11-12------|------------------------------|
----------11--8-9-11------------|------------------------------|
--------------------------------|------------------------------|
--------------------------------|------------------------------|
--------------------------------|------------------------------|


   E.    E.   Q     Q      E      Q.      S  S  E.   E.   E   
--14S---19---19----18S----14--|--14------14-14-14---11---12--|
------------------------------|------------------------------|
------------------------------|------------------------------|
------------------------------|------------------------------|
------------------------------|------------------------------|
------------------------------|------------------------------|


                                                        |---3---|   
   Q.      E   Q.      E      E.   E.   E   S  S  S  S  E   E   E   
--14----------------------|----------------11-12-11----11----------|
----------12--12------12--|--11---12---14-----------14-----14--12--|
--------------------------|----------------------------------------|
--------------------------|----------------------------------------|
--------------------------|----------------------------------------|
--------------------------|----------------------------------------|


   E.   E.   E   E.   S  S  S  E     E.  E.   E   E.  E.  E   
----------------------------------|--------------------------|
--11---12---14--12---11-12-11-----|--------------------------|
------------------------------11--|--8---9---11--11---9---8--|
----------------------------------|--------------------------|
----------------------------------|--------------------------|
----------------------------------|--------------------------|


   Q.      S  S  E.  E.  E     E.  E.  E  Q.     E   
----------------------------|-----------------------|
----------------------------|-----------------------|
--11------11-11-11---9---8--|--6----------6------6--|
----------------------------|------8---9------------|
----------------------------|-----------------------|
----------------------------|-----------------------|


          |--3--|                                        
  S S S S E  E  E  E.  E.  E     E.  S S S S S H         
------------------------------|-------------------------|
------------------------------|-------------------------|
--8-9-8-6-8--6--4--3---4---6--|--4---3-4-3-4-3----------|
------------------------------|----------------4--------|
------------------------------|-------------------------|
------------------------------|-------------------------|


            |--3--|  |--3--|                                                    
  Q    Q    E  E  E  E  E  E       E.  E.  E  E  Q.         H         H         
------------------------------|------------------6b------|--6--------/6--------|
------------------------4--5--|--5g7---5---4-------------|---------------------|
---------------3--4--6--------|---------------4----------|---------------------|
--2----4----6-----------------|--------------------------|---------------------|
------------------------------|--------------------------|---------------------|
------------------------------|--------------------------|---------------------|


  Q.     Q.     Q       W                   W                 
--9------7------6----|--7----------------|--L----------------|
---------------------|-------------------|-------------------|
---------------------|-------------------|-------------------|
---------------------|-------------------|-------------------|
---------------------|-------------------|-------------------|
---------------------|-------------------|-------------------|


  W                   H        H           W                 
--7----------------|--L--------6--------|--7----------------|
-------------------|--------------------|-------------------|
-------------------|--------------------|-------------------|
-------------------|--------------------|-------------------|
-------------------|--------------------|-------------------|
-------------------|--------------------|-------------------|


  W                   W                   H        H         
--L----------------|--L----------------|--7--------6--------|
-------------------|-------------------|--------------------|
-------------------|-------------------|--------------------|
-------------------|-------------------|--------------------|
-------------------|-------------------|--------------------|
-------------------|-------------------|--------------------|


   E   E   E   E   E   E   E   E      E   E   E   E   E   E   E   E   
------11------11------11------11--|------11------11------11------11--|
----------14------12------11------|--14------12------11------14------|
----------------------------------|----------------------------------|
--13------------------------------|----------------------------------|
----------------------------------|----------------------------------|
----------------------------------|----------------------------------|


   E   E   E   E   E   E   E   E      E   E   E   E   E   E   Q     
------11------11------11------11--|--12--11------------------------|
----------14------12------11------|----------14--12--11------------|
----------------------------------|----------------------13--12----|
--13------------------------------|--------------------------------|
----------------------------------|--------------------------------|
----------------------------------|--------------------------------|


   E   E   E   E   E   E   E   E      E   E   E   E   E   E   E   E   
------11------11------11------11--|------11------11------11------11--|
----------14------12------11------|----------14------12------11------|
----------------------------------|--13------------------------------|
--13------------------------------|----------------------------------|
----------------------------------|----------------------------------|
----------------------------------|----------------------------------|


   E   E   E   E   E   E   E   E      E   E   E   E   E   E   Q     
------11------11------11------11--|--12--11------------------------|
----------14------12------11------|----------14--12--11------------|
----------------------------------|----------------------13--12----|
--13------------------------------|--------------------------------|
----------------------------------|--------------------------------|
----------------------------------|--------------------------------|


                                         |-3-|          
   H         E   Q     E      E.  E.  E  S S S Q    E   
--------------------------|----------------------------|
--------------------------|----------------------------|
--13--------13--11----13--|--11---8---9--8-9-8---------|
--------------------------|--------------------8----9--|
--------------------------|----------------------------|
--------------------------|----------------------------|


              |--3--|  |--3--|     |--3--|  |--3--|                
   E.  E.  E  E  E  E  E  E  E     E  E  E  E  E  E  E.   E.   E   
--------------------------------|---------------------------------|
--------------------------------|-----------------7--9---11---12--|
--11---8---8--9--8--6--8--6-----|--------6--8--9------------------|
-----------------------------9--|--8--9---------------------------|
--------------------------------|---------------------------------|
--------------------------------|---------------------------------|


     E.    E.   E   E   Q.         E.   E.   E   E.   E.   E   
-----------------------14------|--14---12---11----------------|
--<>12b---12---11--12----------|----------------14---11---12--|
-------------------------------|------------------------------|
-------------------------------|------------------------------|
-------------------------------|------------------------------|
-------------------------------|------------------------------|


   H          Q       E   E      H        E.   S  S  S  S  S  
-----------------------------|-------------------------------|
--14b--------14br----12------|--12--------L---------11-12-14-|
-------------------------13--|----------------11-13----------|
-----------------------------|-------------------------------|
-----------------------------|-------------------------------|
-----------------------------|-------------------------------|


   H          E.   S  S  S  S  S     Q      Q     Q     Q     
--12b----------------------------|--14S----19----18----14----|
-------------12---------11-12-14-|---------------------------|
------------------11-13----------|---------------------------|
---------------------------------|---------------------------|
---------------------------------|---------------------------|
---------------------------------|---------------------------|


   Q     E   E   Q     E   E      H         E.   E.   E      W                 
--14----11--12--14----12--11--|--------------------------|--------------------|
------------------------------|--11--------14---12---11--|--12----------------|
------------------------------|--------------------------|--------------------|
------------------------------|--------------------------|--------------------|
------------------------------|--------------------------|--------------------|
------------------------------|--------------------------|--------------------|


  H         H            W                    H          H         
-----------14--------|--------------------|-----------------------|
--L------------------|--11----------------|--14--------/16--------|
---------------------|--------------------|-----------------------|
---------------------|--------------------|-----------------------|
---------------------|--------------------|-----------------------|
---------------------|--------------------|-----------------------|


                            TP                              TP    TP    TP    
   Q.     E  Q     Q        H         H            E    E   Q     Q     Q     
------------------------|----------------------|-----------------------------|
------------------------|----------------------|-----------------------------|
------------------/8----|------------11--------|--11S--16--16----15----13----|
--/9---------9----------|--11------------------|-----------------------------|
----------9-------------|----------------------|-----------------------------|
------------------------|----------------------|-----------------------------|


                                    TP    TP   TP    
   Q    E   E  H           E    E   Q     Q    Q     
------------------------|---------------------------|
------------------------|---------------------------|
--15----LS--8--8--------|--8S--13--13----11----9----|
------------------------|---------------------------|
------------------------|---------------------------|
------------------------|---------------------------|


   Q    E   E  Q    E   E     H.           Q       Q.     Q.     S S S S  
---------------------------|--------------------|------------------------|
---------------------------|--------------------|--9------7------5-7-5-4-|
--11----LS--4--4----LS--8--|--6------------6----|------------------------|
---------------------------|--------------------|------------------------|
---------------------------|--------------------|------------------------|
---------------------------|--------------------|------------------------|


    Q.      E  S S  S  S  S  E.      E.   E.   E   E.   E.   E   
----------------------------14---|--14---12---11--11---12---14--|
--/12-----------------11-12------|------------------------------|
-----------11--8-9-11------------|------------------------------|
---------------------------------|------------------------------|
---------------------------------|------------------------------|
---------------------------------|------------------------------|


   E.    E.   Q     Q      E      Q.      S  S  E.   E.   E   
--14S---19---19----18S----14--|--14------14-14-14---11---12--|
------------------------------|------------------------------|
------------------------------|------------------------------|
------------------------------|------------------------------|
------------------------------|------------------------------|
------------------------------|------------------------------|


                                                        |---3---|   
   Q.      E   Q.      E      E.   E.   E   S  S  S  S  E   E   E   
--14----------------------|----------------11-12-11----11----------|
----------12--12------12--|--11---12---14-----------14-----14--12--|
--------------------------|----------------------------------------|
--------------------------|----------------------------------------|
--------------------------|----------------------------------------|
--------------------------|----------------------------------------|


   E.   E.   E   E.   S  S  S  E     E.  E.   E   E.  E.  E   
----------------------------------|--------------------------|
--11---12---14--12---11-12-11-----|--------------------------|
------------------------------11--|--8---9---11--11---9---8--|
----------------------------------|--------------------------|
----------------------------------|--------------------------|
----------------------------------|--------------------------|


  H.           S S S S    H        H              W                 
-----------------------|--------------------|----------------------|
-----------------------|--------------------|----------------------|
--9------------8-9-8-9-|--6--------3--------|--4g16----------------|
-----------------------|--------------------|----------------------|
-----------------------|--------------------|----------------------|
-----------------------|--------------------|----------------------|


-------------------|-------------------|-------------------||
-------------------|-------------------|-------------------||
-------------------|-------------------|-------------------||
-------------------|-------------------|-------------------||
-------------------|-------------------|-------------------||
-------------------|-------------------|-------------------||




Duration Legend
---------------
W - whole
H - half
Q - quarter
E - 8th
S - 16th
T - 32nd
X - 64th
. - note dotted
|-n-|  - n-tuplets


Tablature Legend
----------------
L - tied note
x - dead note
g - grace note
(n) - ghost note
> - accentuded note
NH - natural harmonic
AH - artificial harmonic
TH - tapped harmonic
SH - semi harmonic
PH - pitch harmonic
h - hammer on
p - pull off
b - bend
br - bendRelease
pb - preBend
pbr - preBendRelease
brb - bendReleaseBend
\n/ - tremolo bar dip
\n - tremolo bar dive
-/n - tremolo bar Release up
/n\ - tremolo bar inverted dip
/n - tremolo bar return
-\n - tremolo bar Release down
S - shift slide
s - legato slide
/ -  slide into from below or out of upwards
\ -  slide into from above or out of downwards
~ - vibrato
W - wide vibrato
tr - trill
TP - tremolo picking
T - tapping
S - slap
P - pop
< - fade in
^ - brush up
v - brush down
Tap to rate this tab
# A B C D E F G H I J K L M N O P Q R S T U V W X Y Z