Song name
# A B C D E F G H I J K L M N O P Q R S T U V W X Y Z

Hole - Miss World tab

MISS WORLD by HOLE (written by Courtney Love and Eric Erlandson)


Play something like this in the intro:


G             D                  F                 C

-------------------------------------------------------------------|
-------3----------------3---------------1---------------(1)--------|
-----------0-------2--------2-------2--------------------0---------|
---0-----------0-----------------3----------3--2-----2--------2----|
-------------------------------------------------3-----------------|
3------------------------------------------------------------------|


G         D                 F             C

I am the girl you know, canít look you in the eye
G         D                 F             C
I am the girl you know, so sick I cannot try
 G            D                   F              C
And I am the one you want, canít look you in the eye
G         D                F              C
I am the girl, you know I lie, and lie and lie


Then this follows:

---------------------------------------------------------|
-3-3-3-5-5-5-7-7-7-7-7-7-7-7-7-7-7-5-5-5-5-3-3-3-3-3-----|
-0-0-0-0-0-0-0-0-0-0-0-0-0-0-0-0-0-0-0-0-0-0-0-0-0-0-----|
-0-0-0-0-0-0-x-x-x-x-x-x-x-5-5-5-5-4-4-4-4-2-2-2-2-2-----|
-2-2-2-4-4-4-6-6-6-6-6-6-6-7-7-7-7-5-5-5-5-3-3-3-3-3-----|
-3-3-3-5-5-5-7-7-7-7-7-7-7-------------------------------|

It's okay if you also play the high open E string.

CHORUS

For the chorus itís the same chords but one of the guitars can play power chords:

G5       A5        B5         E5     D5    C5
Now Iíve made my bed, Iíll lie in it
Iíve made my bed, Iíll die in it
Iíve made my bed, Iíll lie in it
Iíve made my bed, Iíll die in it

---------------------------------------------------------|
---------------------------------------------------------|
---------------------------9-9-9-9-7-7-7-7-5-5-5-5-5-----|
-5-5-5-7-7-7-9-9-9-9-9-9-9-9-9-9-9-7-7-7-7-5-5-5-5-5-----|
-5-5-5-7-7-7-9-9-9-9-9-9-9-7-7-7-7-5-5-5-5-3-3-3-3-3-----|
-3-3-3-5-5-5-7-7-7-7-7-7-7-------------------------------|


And then itís pretty much the same parts that gets repeated over again.
Tap to rate this tab
# A B C D E F G H I J K L M N O P Q R S T U V W X Y Z