Hole - Olympia tab

Verse
|------------------|
|------------------|
|9-9---------------|
|9-9--9-9--77777777|
|7-7--9-9--77777777|
|-----7-7--55555555|
Chorus
|--------------|
|--------------|
|9-------------|
|9--9-9-10--7-7|
|7--9-9-10--7-7|
|---7-7-8---5-5|
Bridge (the part where she says "do it for the kids")
|-----------------------|
|-----------------------|
|9999-------------------|
|9999-9999-10101010-7777|
|7777-9999-8-8-8-8--7777|
|-----7777-8-8-8-8--5555|
Tap to rate this tab
 
# A B C D E F G H I J K L M N O P Q R S T U V W X Y Z