Song name
# A B C D E F G H I J K L M N O P Q R S T U V W X Y Z

Hole - Babydoll tab

Hole - Babydoll (Pretty On The Inside)

 Intro

e- ------------------------------------------------------|
B- ------------------------------------------------------|
G- ------------------------------------------------------|
D- ------------------------------------------------------|
A- -5-x6-5-5/8--8-x5-8/3--3-x15--------------------------|
E- -3----3-3/6--6----6/1--1------------------------------|


 Main Riff (Verse/Chorus)

e- ----------------------------------------------------|
B- ----------------------------------------------------|
G- ----------------------------------------------------|
D- -7-x6-7-7/10-7-x5-7-7/10-7-x5-7-7/10-7-x5-7/3-------|
A- -5----5-5/8--5----5-5/8--5----5-5/8--5----5/1-------|
E- ----------------------------------------------------|
                                                         x2 (don't do the slide last time)
e- ----------------------------------------------------|
B- ----------------------------------------------------|
G- ----------------------------------------------------|
D- -3-x6-3-3/6--3-x5-3-3/6--3-x5-3-3/6--3-x5-3/7-------|
A- -1----1-1/4--1----1-1/4--1----1-1/4--1----1/5-------|
E- ----------------------------------------------------|


 Verse (here you are sucking my energy...)

e- -------------------------|--------------------------|
B- -------------------------|--------------------------|
G- ---------------------(x3)|--------------------------|
D- -------------------------|--------------------------|
A- -5-x6-5-5/8--8-x5-8/5----|-5-x6-5-5/8--8-x6---------|
E- -3----3-3/6--6----6/3----|-3----3-3/6--6------------|


 Chorus/Pre-Bridge

e- ----------------------------------------------------|
B- ----------------------------------------------------|
G- ----------------------------------------------------|
D- -7-x6-7-7/10-7-x5-7-7/10-7-x5-7-7/10-7-x6-----------|
A- -5----5-5/8--5----5-5/8--5----5-5/8--5----5^--------|
E- ------------------------------------------3^--------|


 Bridge

e- ----------------------------------------------------|
B- ----------------------------------------------------|
G- ----------------------------------------------------| x2
D- -9^9^-----9^9^-----9^9^-----9^9^--------------------|
A- ------8-x3-----8-x3-----8-x3-----8-x3-5-------------|
E- ------6--------6--------6--------6----3-------------|
                                        (G5)
play this many times with and without palm mute (listen for strumming)

 Main Riff


 Verse


 Chorus/Pre-Bridge


 Bridge (the second time you only play the 9^'s and the G5's)


 Main Riff


 Verse


 Chorus/Pre Bridge


 Bridge (the second time you only play the 9^'s and the G5's)


 Ending (listen for strumming)

e- ----------------------------------------------------|
B- ----------------------------------------------------|
G- ----------------------------------------------------|
D- -3----3-3/4-4-4/3--3----3-3/4-4-4--9^--9^10^9^------|
A- -1----1-1/2-2-2/1--1----1-1/2-2-2-------------------|
E- ----------------------------------------------------|

e- ----------------------------------------------------|
B- ----------------------------------------------------|
G- ----------------------------------------------------|
D- -3----3-3/4-4-4/3--3--------------------------------|
A- -1----1-1/2-2-2/1--1--------------------------------|
E- ----------------------------------------------------|
Tap to rate this tab
# A B C D E F G H I J K L M N O P Q R S T U V W X Y Z