Song name
# A B C D E F G H I J K L M N O P Q R S T U V W X Y Z

Hole - Pacific Coast Highway tab

Hole - Pacific Coast Highway (Nobody's Daughter)



 Intro/Verse

e- -0----0----3----3-----------------------------------|
B- -1----1----3----3-----------------------------------|
G- -2----0----0----0-----------------------------------|
D- -3----2----0----0-----------------------------------| x6
A- -0----3----2----2-----------------------------------|
E- -----------3----3-----------------------------------|


 Pre-Chorus
(listen for strumming)
e- -3----3----0----0-0--0--0-0-------------------------|
B- -1----3----1----1-1--1--1-1-------------------------|
G- -0----0----2----2-2--0--2-0-------------------------|
D- -2----0----3----3-3--3--3-3-------------------------| x2
A- -3----2----0----0-0--0--0-0-------------------------|
E- ------3---------------------------------------------|

i'm on a pacific coast highway
(listen for strumming)
e- -3----0---|0-0--0-0-0-0-0--0--0-0-------------------|
B- -3----1---|1-1--0-1-0-1-1--0--1-0-------------------|
G- -0----2---|2-2--2-2-2-2-2--2--2-2-------------------|
D- -2----3---|2-2--2-2-2-2-2--2--2-2-------------------| x2
A- -2----0---|0-0--0-0-0-0-0--0--0-0-------------------|
E- -0--------|-----------------------------------------|


 Chorus

e- -0----0----3----3-----------------------------------|
B- -1----1----3----3-----------------------------------|
G- -2----2----0----0-----------------------------------|
D- -3----2----0----0-----------------------------------| x4
A- -0----0----2----2-----------------------------------|
E- -----------3----3-----------------------------------|


 Verse


 Pre-Chorus


i'm on a pacific coast highway
(listen for strumming)
e- -3----0---|0-0--0-0-0-0-0--0--0-0-------------------|
B- -3----1---|1-1--0-1-0-1-1--0--1-0-------------------|
G- -0----2---|2-2--2-2-2-2-2--2--2-2-------------------|
D- -2----3---|2-2--2-2-2-2-2--2--2-2-------------------|
A- -2----0---|0-0--0-0-0-0-0--0--0-0-------------------|
E- -0--------|-----------------------------------------|

e- -3----0----3----3-----------------------------------|
B- -3----1----3----3-----------------------------------|
G- -0----2----0----0-----------------------------------|
D- -2----3----2----2-----------------------------------|
A- -2----0----2----2-----------------------------------|
E- -0---------0----0-----------------------------------|


 Chorus x4


and you know i'm drowning

e- -0----0----3----0----0----0----3--------------------|
B- -1----1----3----3----1----1----3----3---------------|
G- -2----0----0----2----2----0----0----2---------------|
D- -3----2----0----0----3----2----0----2---------------|
A- -0----3----2----0----0----3----2----0---------------|
E- -----------3----2--------------3--------------------|


 Solo Rhythm

e- -0----0----0-0--0-0-0-0-0--0--0-0-------------------|
B- -0----1----1-1--0-1-0-1-1--0--1-0-------------------|
G- -0----2----2-2--2-2-2-2-2--2--2-2-------------------|
D- -2----3----2-2--2-2-2-2-2--2--2-2-------------------|
A- -2----0----0-0--0-0-0-0-0--0--0-0-------------------|
E- -0--------------------------------------------------|

e- -0----0----3----3-----------------------------------|
B- -0----1----3----3-----------------------------------|
G- -0----2----0----0-----------------------------------|
D- -2----3----2----2-----------------------------------|
A- -2----0----2----2-----------------------------------|
E- -0---------0----0-----------------------------------|


 Bridge

e- -3----3----3---(3)----------------------------------|
B- -3----3----3----1--2--------------------------------|
G- -0----0----2----0--0--------------------------------|
D- -0----2----2----2--3--------------------------------| x8
A- -2----2----0----3--4--------------------------------|
E- -3----0---------------------------------------------|


 End On

e- -3-
B- -3-
G- -0-
D- -0-
A- -2-
E- -3-
Tap to rate this tab
# A B C D E F G H I J K L M N O P Q R S T U V W X Y Z