Song name
# A B C D E F G H I J K L M N O P Q R S T U V W X Y Z

Hole - Its All Over Now Baby Blue tab

Hole - It's All Over Now, Baby Blue (Malibu Single)

maybe there are two guitars on this song, one plays this tab and the other plays only powerchords


 Intro/Verse riff

e- -------12-------12----12-------12-------12----12----|
B- ----15-------15----15-------15-------15----15-------|
G- -14-------14-------------14-------14----------------|
D- ----------------------------------------------------|
A- ----------------------------------------------------|
E- ----------------------------------------------------|

e- ----------------------------------------------------|
B- ------10-------10----10------10------10----10-------|
G- ----9-------11----11-------9------11----11----------|
D- -12------12------------12------12-------------------|
A- ----------------------------------------------------|
E- ----------------------------------------------------|


 then
(listen for strumming)
e- -0----3----2-3-2-0--2-3-2-0-------------------------|
B- -0----3----3-3-3-3--3-3-3-3-------------------------|
G- -0----0----2-2-2-2--2-2-2-2-------------------------|
D- -2----0----0-0-0-0--0-0-0-0-------------------------| x2
A- -2----2---------------------------------------------|
E- -0----3---------------------------------------------|


 look out baby the sky is falling through
(listen for strumming)
e- (2)--------0----------------------------------------|
B- (2)--------2----------------------------------------|
G- -3---------2----------------------------------------|
D- -4---------2----------------------------------------|
A- -4---------0----------------------------------------|
E- -2--------------------------------------------------|


 Chorus (it's all over now baby blue)
(listen for strumming)
e- -0----3----2-3-2-0--2-3-2-0-------------------------|
B- -0----3----3-3-3-3--3-3-3-3-------------------------|
G- -0----0----2-2-2-2--2-2-2-2-------------------------|
D- -2----0----0-0-0-0--0-0-0-0-------------------------|
A- -2----2---------------------------------------------|
E- -0----3---------------------------------------------|


 Post-Chorus Riff

e- -------12-------12----12-------10-------10----10----|
B- ----15-------15----15-------12-------12----12-------|
G- -14-------14-------------12-------12----------------|
D- ----------------------------------------------------| x2
A- ----------------------------------------------------|
E- ----------------------------------------------------|

e- ----------------------------------------------------|
B- ------10(10)--10(10)--10----------------------------|
G- ----9----9--9----9--9-11----------------------------|
D- -12------12------12---12----------------------------|
A- ----------------------------------------------------|
E- ----------------------------------------------------|


 Verse
(listen for strumming)
e- -0---------2----------------------------------------|
B- -2---------3----------------------------------------|
G- -2---------2----------------------------------------|
D- -2---------0----------------------------------------| x2
A- -0--------------------------------------------------|
E- ----------------------------------------------------|


 then you repeat some parts and


 Ending

e- -------12-------12----12-------10-------10----10----|
B- ----15-------15----15-------12-------12----12-------|
G- -14-------14-------------12-------12----------------|
D- ----------------------------------------------------| x2
A- ----------------------------------------------------|
E- ----------------------------------------------------|

e- ----------------------------------------------------|
B- ------10-10-10(10)10--------------------------------|
G- ----9----11----9--11--------------------------------|
D- -12------12----12-12--------------------------------|
A- ----------------------------------------------------|
E- ----------------------------------------------------|
Tap to rate this tab
# A B C D E F G H I J K L M N O P Q R S T U V W X Y Z