Song name
# A B C D E F G H I J K L M N O P Q R S T U V W X Y Z

Hole - Samantha tab

Hole - Samantha (Nobody's Daughter)

 Intro

e- -0----0----0----0-----------------------------------|
B- -2----1----2----1-----------------------------------|
G- -2----2----2----2-----------------------------------|
D- -2----2----2----2-----------------------------------|
A- -0----0----0----0-----------------------------------|
E- ----------------------------------------------------|


 Verse

e- -0----0----0----0--0--------------------------------|
B- -2----1----1----1--1--------------------------------|
G- -2----2----0----2--0--------------------------------|
D- -2----2----2----3--2--------------------------------| x2
A- -0----0----3----0--3--------------------------------|
E- ----------------------------------------------------|


 Chorus

e- -0----0----0----3----1----0-------------------------|
B- -3----3----0----3----1----3-------------------------|
G- -2----0----2----0----2----2-------------------------|
D- -0----2----2----0----3----0-------------------------|
A- ------3----0----2----3------------------------------|
E- ----------------3-----------------------------------|


 Post-Chorus (samantha, you burned me out...)

e- (0----1--0)-----------------------------------------|
B- -0----1--1------------------------------------------|
G- -2----2--0------------------------------------------|
D- -2----3--2------------------------------------------| x4
A- -0----3--3------------------------------------------|
E- ----------------------------------------------------|


 Chorus 2

e- -0----0----0----3----1---0----0---------------------|
B- -3----3----0----3----1---1----3---------------------|
G- -2----0----2----0----2---0----2---------------------|
D- -0----2----2----0----3---2----0---------------------|
A- ------3----0----2----3---3--------------------------|
E- ----------------3-----------------------------------|


 Bridge

through villages of ether...
e- -0----0----3----0-----------------------------------|
B- -0----1----3----3-----------------------------------|
G- -2----0----0----2-----------------------------------|
D- -2----2----0----0-----------------------------------| x2
A- -0----3----2----------------------------------------|
E- ------3----3----------------------------------------|

look in m eyes, there's nothing there...
e- (1----0----0----0)----------------------------------|
B- -1----3----0----3-----------------------------------|
G- -2----2----2----0-----------------------------------|
D- -3----0----2----2-----------------------------------| x2
A- -3---------0----3-----------------------------------|
E- ----------------------------------------------------|

e- (1----0)--------------------------------------------|
B- -1----3---------------------------------------------|
G- -2----2---------------------------------------------|
D- -3----0---------------------------------------------|
A- -3--------------------------------------------------|
E- ----------------------------------------------------|

people like you, fuck people like me...
e- (3----0----0----0)----------------------------------|
B- -3----3----3----1-----------------------------------|
G- -0----4----2----2-----------------------------------|
D- -2----4----0----2-----------------------------------| x3
A- -2----2---------0-----------------------------------|
E- -0--------------------------------------------------|

e- (0----0----3)---------------------------------------|
B- -0----0----3----------------------------------------|
G- -0----0----0----------------------------------------|
D- -2----2----0----------------------------------------|
A- -2----0----2----------------------------------------|
E- -0----2----3----------------------------------------|

leave your money by the bed...
e- (0----0----3----0)----------------------------------|
B- -0----3----3----0-----------------------------------|
G- -2----0----0----2-----------------------------------|
D- -2----2----0----2-----------------------------------| x2
A- -0----3----2----0-----------------------------------|
E- -----------3----------------------------------------|

so you think that you could save him...
e- (3----3----0----0)----------------------------------|
B- -3----3----3----0-----------------------------------|
G- -0----0----2----2-----------------------------------|
D- -2----0----0----2-----------------------------------| x2
A- -2----2---------0-----------------------------------|
E- -0----3---------------------------------------------|

e- (3----3----0----0)----------------------------------|
B- -3----3----3----0-----------------------------------|
G- -0----0----0----2-----------------------------------|
D- -2----0----2----2-----------------------------------| x6
A- -2----2----3----0-----------------------------------|
E- -0----3---------------------------------------------|

End on
e- (3)
B- -3-
G- -0-
D- -2-
A- -2-
E- -0-
Tap to rate this tab
# A B C D E F G H I J K L M N O P Q R S T U V W X Y Z