Song name
# A B C D E F G H I J K L M N O P Q R S T U V W X Y Z

Hole - Heaven Tonight tab

-------------------------------------------------------------------------------
Hole - Heaven Tonight
-------------------------------------------------------------------------------

Artist: Hole
Song: Heaven Tonight
Album: Celebrity Skin
Year: 1998
Tabbed By : Sean Walkington
e-mail: seanwalkington2003@hotmail.com

Intro:
|-------8----------8-----------------------3---|
|----11---11----10---10----8-8h10p8------8---8-|
|-10---------10---------10----------10-9-------|
|----------------------------------------------|
|----------------------------------------------|
|----------------------------------------------|

|-------8--------------------|
|----11---11----10-8h10p8----|
|-10---------10-----------10-|
|----------------------------|
|----------------------------|
|----------------------------|

|-----3-----3----------3------3----------3-----3----------3-------3-|
|---3-----3-----3----3------3---3------3-----3-----3----3-------3---|
|-9-----7-----5---/9-----10-------10-9-----7-----5---/9-----10------|
|-------------------------------------------------------------------|
|-------------------------------------------------------------------|
|-------------------------------------------------------------------|

Verse:
|-3----3----3--------|
|-5----6----3--------|
|-5----5----4--------|
|-5----3----5--------|
|-3---------5--------|
|-----------3--------|

Bridge:
|-3--3----3--7-8-7-5-|
|-6----6--3----------|
|-5-------4----------|
|-3-------5----------|
|---------5----------|
|---------3----------|

Chorus:
|-3----3----3--------|
|-5----6----3--------|
|-5----5----4--------|
|-5----3----5--------|
|-3---------5--------|
|-----------3--------|

Verse:

Bridge:

Chorus:

Interlude:
                                             x5
|-------8----------8-----------------------3---|
|----11---11----10---10----8-8h10p8------8---8-|
|-10---------10---------10----------10-9-------|
|----------------------------------------------|
|----------------------------------------------|
|----------------------------------------------|

|-------8--------------------|
|----11---11----10-8h10p8----|
|-10---------10-----------10-|
|----------------------------|
|----------------------------|
|----------------------------|

|-----3-----3----------3-------3-|
|---3-----3-----3----3-------3---|
|-9-----7-----5---/9-----10------|
|--------------------------------|
|--------------------------------|
|--------------------------------|

Verse:

Bridge:

Chorus:

Outro:
|-3----|
|-5----|
|-5----|
|-5----|
|-3----|
|------|
Tap to rate this tab
# A B C D E F G H I J K L M N O P Q R S T U V W X Y Z