Song name
# A B C D E F G H I J K L M N O P Q R S T U V W X Y Z

Hole - Phonebill Song tab

Help us improve GuitareTab! Take a short survey!
----------------------------------------------------------------------------
			   PHONEBILL SONG - Hole
----------------------------------------------------------------------------
Tabbed by: illy93
Tuning: Standard

VERSES:
e|---------------------|
B|---------------------|
G|---------------------|
D|------5-7-----5-7----|
A|--5-7-3-5-5-7-3-5-5--|
E|--3-5-----3-5-----3--|

CHORUS:
e|-------------------------------------|
B|-------------------------------------|
G|-------------------------------------|
D|--99-9999-77-7777-55-5555-555555-77--|
A|--77-7777-55-5555-33-3333-333333-55--|
E|-------------------------------------|

OUTRO:
e|-----------------------|
B|-----------------------|
G|-----------------------|
D|------5-7-----5-7-5b6--|
A|--5-7-3-5-5-7-3-5------|
E|--3-5-----3-5----------|

============================================================================

~STRUCTURE~
VERSE RIFF (x5)
CHORUS RIFF (x2)
VERSE RIFF (x5)
CHORUS RIFF (x2)
VERSE RIFF (x5)
CHORUS RIFF (x2)
OUTRO

============================================================================
Related for Phonebill Song tab