Song name
# A B C D E F G H I J K L M N O P Q R S T U V W X Y Z

Hollerado - On My Own tab

On My Own
Hollerado
Record In A Bag



intro:

e|--------------------------------------------------------|
B|-------------------------------------------------2------|
G|-------------------------------------------------2------|
D|-2--4--7--9/11~----11-11-11-11-9-7-4---/7-4-2----2------|
A|-------------------------------------------------0------|
E|--------------------------------------------------------|


A
There's a town in southern Georgia where
A
The sun sets thick and slow
A
If I could take a trip with you
A
That's where we would go
A
I'd bring the playing cards
A
You'd melt the snow
A
That lets us out of here
D                              A
Hey now I've been waiting so long

Bm D  A
On my own

A
I've got this sweater in my dresser drawer
A
That I wear when I'm sick
A
But the winter's finally over
A
So I won't be bringing it
A
You bring granola bars
A
I'll bring some bags
A
To put the wrappers in
D                               A
Hey now I've been waiting so long

Bm D  A
On my own
Bm D  A 
On my own

solo:

e|---------------------------------------------------------------|
B|-12b----10-12p10----10--12p10----12p10-------------------------|
G|-----11----------11-----------11-------11-9--9-----9-----------|
D|-----------------------------------------------10b-------------|
A|---------------------------------------------------------------|
E|---------------------------------------------------------------|

e|-------------------------------------------------9-------------|
B|-12/14-12b----10-12p10----10--12p10----12p10-----10------------|
G|-----------11----------11-----------11-------11--9-------------|
D|---------------------------------------------------------------|
A|---------------------------------------------------------------|
E|---------------------------------------------------------------|

Bm D  A
On my own
Bm D  A
On my own

A
And when it's time to change the music
A
We'll stop and get some gas
A
And the rest stop will have a screen door
A
Where we'll buy some souvenir hats
A
Come on pet the neighbor's dog
A
Before we do the driving
A
Through the afternoon

One two three four!

D                              A
Hey now I've been waiting so long

Bm D  A
On my own
Bm D  A
On my own     

Bm D  A
On my own
Tap to rate this tab
# A B C D E F G H I J K L M N O P Q R S T U V W X Y Z