Song name
# A B C D E F G H I J K L M N O P Q R S T U V W X Y Z

Holly Brook - Saturdays tab

E |---8----8---4---4---1---1---3---3|
B |---8----8---4---4---1---1---3---3|
G |---------------------------------|
D |-10--10----6--6----3--3----5--5--|
A |---------------------------------|
E |---------------------------------|

Saturday
What a day
What a silly little day
Time to kill
Take a pill
As I sit and contemplate

E |---8----8---4---4---1---1---3---3|
B |---8----8---4---4---1---1---3---3|
G |---------------------------------|
D |-10--10----6--6----3--3----5--5--|
A |---------------------------------|
E |---------------------------------|
how I'd like to be around
all the people in the town
with their fancy clothes and things

E |---8----8---7---7---6---6---5---5--|
B |---8----8---7---7---6---6---5---5--|
G |-----------------------------------|
D |-10--10----9--9----8--8----7--7----|
A |-----------------------------------|
E |-----------------------------------|

That I have got time
E |--4---4---4---4---3---3--3-------|
B |--4---4---4---4---3---3--3-------|
G |---------------------------------|
D |-6--6----6--6----5--5---5--------|
A |---------------------------------|
E |---------------------------------|

Stop pushin
all your tragedies away
Each moment has got a lesson for the day
E |---8----8---4---4---1---1---3---3|
B |---8----8---4---4---1---1---3---3|
G |---------------------------------|
D |-10--10----6--6----3--3----5--5--|
A |---------------------------------|
E |---------------------------------|
Take something with you
if you drag your heels in yesterday's

E |---8----8---7---7---6---6-5-----|
B |---8----8---7---7---6---6-5-----|
G |--------------------------------|
D |-10--10----9--9----8--8---7-----|
A |--------------------------------|
E |--------------------------------|
oh these saturdays (oooh)

(repeat the tabs two times)
In the haste
In the grace
I've been up to my waist
It isn't real
what you feel
when you finally feel the chase
I've been waiting for the day
when someone takes me away
and I never get replaced
but I have got time

Stop pushin 
all your tragedies away
Each moment has got a lesson for the day
Take something with you
if you drag your heels in yesterday's
oh these saturdays
these saturdays, no.
(oooh bum badadum bumdada)

As I sink
one more drink
I am running out of ink
Feeling void
paranoid
about every little thing
and I wonder if I try
to get up and say goodbye
if I'll have the strength to leave
Cause I
I don't have much time anymore.

Stop pushin
all your tragedies away
Each moment has got a lesson for the day
Take something wtih you
if you drag your heels in yesterday's
oh these saturdays
these saturdays now
saturdays now, baby.
Tap to rate this tab
# A B C D E F G H I J K L M N O P Q R S T U V W X Y Z