Song name
# A B C D E F G H I J K L M N O P Q R S T U V W X Y Z

Holly Golightly - Black Night tab

----------------------------------------------------------------------------
			Black Night - Holly Golightly
----------------------------------------------------------------------------
Tabbed by: Otello
Email:

Tuning: Standart

Very nice song and not difficult to play! Listen to it for the timing and the damping, its very important.

I dont know the exact names of the chords, but its something like this:

E7 002130

A 002223 + 002225

H7 021204

INTRO:

  E7
e|-----0----------0---------0----|----0----------0---------------|
B|-----------3----------3------3-|----------3---------3--3-------|
G|-------------------------------|-------------------------------|
D|-----2-------2------2--------2-|----2-------2------2------2----|
A|-------------------------------|-------------------------------|
E|--0------0------0-------0------|-0------0------0------0--------|

e|-----0----------0---------0----|----0----------0---------------|
B|-----------3----------3------3-|----------3--------------------|
G|-------------------------------|-------------------------------|
D|-----2-------2------2--------2-|----2-------2------------------|
A|-------------------------------|-------------------------------|
E|--0------0------0-------0------|-0------0------0---------------|

                                                          No  -
                                                                                              

VERSE:

  E7
e|-----0----------0---------0----|----0----------0--------0-------|
B|-----------3----------3------3-|----------3---------3------3----|
G|-------------------------------|--------------------------------|
D|-----2-------2------2--------2-|----2-------2------2-------2----|
A|-------------------------------|--------------------------------|
E|--0------0------0-------0------|-0------0------0------0---------|

 - body cares about my        Aint  even got a friend          my

e|-----0----------0---------0----|----0----------0--------0-------|
B|-----------3----------3------3-|----------3---------3------3----|
G|-------------------------------|--------------------------------|
D|-----2-------2------2--------2-|----2-------2------2-------2----|
A|-------------------------------|--------------------------------|
E|--0------0------0-------0------|-0------0------0------0---------|

  babys gone and left me,   when will my troubles end?

  A
e|------5----3-----5-----3---5-3-|------5----3-----5-----3---5-3-|   
B|-------------------------------|-------------------------------|
G|-------------------------------|-------------------------------|
D|------2------2-------2-------2-|------2------2-------2-------2-|
A|--0------0-------0-------0-----|--0------0-------0-------0-----|
E|-------------------------------|-------------------------------|

  Black-night is falling                Oh,  how I hate to be a -

  E7
e|-----0----------0---------0----|----0----------0--------0-------|
B|-----------3----------3------3-|----------3---------3------3----|
G|-------------------------------|--------------------------------|
D|-----2-------2------2--------2-|----2-------2------2-------2----|
A|-------------------------------|--------------------------------|
E|--0------0------0-------0------|-0------0------0------0---------|

 - lone                                             and I keep
  
  H7                              A
e|-------------------------------|------5----3-----5-----3---5-3-|
B|-----0----------0---------0----|-------------------------------|
G|-----------2----------2-----2--|-------------------------------|
D|-----1-------1------1-------1--|------2------2-------2-------2-|
A|--2------2------2------2-------|--0------0-------0-------0-----|
E|-------------------------------|-------------------------------|

  cryinfor  my   baby                 but now a - nother day is

  E7
e|-----0----------0---------0----|----0----------0--------0-------|
B|-----------3----------3------3-|----------3---------3------3----|
G|-------------------------------|--------------------------------|
D|-----2-------2------2--------2-|----2-------2------2-------2----|
A|-------------------------------|--------------------------------|
E|--0------0------0-------0------|-0------0------0------0---------|

  gone 


Next Verses and Solo-Breaks are the same, only small differences:

VERSE 2:

I got no one to talk with
to tell my troubles to
dont even know Im living
since I lost you oh

Black night is falling
oh how I hate to be alone
and I keep crying for my baby,
but now another day is gone...


Solo-Break

VERSE 3: the same as Verse 1
Tap to rate this tab
# A B C D E F G H I J K L M N O P Q R S T U V W X Y Z