Song name
# A B C D E F G H I J K L M N O P Q R S T U V W X Y Z

Hollywood Undead - California tab

-------------------------------------------------------------------------------
			     California - Hollywood Undead
-------------------------------------------------------------------------------
Tabbed by:
Email:cheetaclawsfl@yahoo.com

Tuning:Drop D

Intro (played on violins or something like that):
e|-12----12----14----14----17----17----16----16------------------------------|
B|----14----14----14----14----14----14----14----14---------------------------|
G|---------------------------------------------------------------------------|
D|---------------------------------------------------------------------------|
A|---------------------------------------------------------------------------|
E|---------------------------------------------------------------------------|

The guitar comes in and plays this after the other riff is played twice:
e|--------------------------------------------------------------------------|
B|--------------------------------------------------------------------------|
G|--------------------------------------------------------------------------|
D|-11-11-x-x-4-4-7-7-x-x-11-11----------------------------------------------|
A|-11-11-x-x-4-4-7-7-x-x-11-11----------------------------------------------|
E|-11-11-x-x-4-4-7-7-x-x-11-11----------------------------------------------|

Verse(once again, played by some kinda violin-like instrument):
e|---------------------------------------------------------------------------|
B|---------------------10-------9--------------------------------------------|
G|----9-------11-------------------------------------------------------------|
D|-11---11-11----11-11----11-11---11-----------------------------------------|
A|---------------------------------------------------------------------------|
E|---------------------------------------------------------------------------|
I palm mute the 11's on the D string, but you don't really need to.


Pre-chorus(I really have no idea what's playing this part):
e|-16-14-12---14-12-11-------------------------------------------------------|
B|---------------------------------------------------------------------------|
G|---------------------------------------------------------------------------|
D|---------------------------------------------------------------------------|
A|---------------------------------------------------------------------------|
E|---------------------------------------------------------------------------|

Chorus:
e|--------------------------------------------------------------------------|
B|--------------------------------------------------------------------------|
G|--------------------------------------------------------------------------|
D|-11-11-x-x-4-4-7-7-x-x-11-11----------------------------------------------|
A|-11-11-x-x-4-4-7-7-x-x-11-11----------------------------------------------|
E|-11-11-x-x-4-4-7-7-x-x-11-11----------------------------------------------|

Then the verse and pre-chorus are played again.  Also, the pre-chorus riff starts about 
way through the verse.  Listen to the song and you'll know what I mean.

Bridge:
e|--------------------------------------------------------------------------|
B|--------------------------------------------------------------------------|
G|--------------------------------------------------------------------------|
D|-11-11-x-x-4-4-7-7-x-x-11-11----------------------------------------------|
A|-11-11-x-x-4-4-7-7-x-x-11-11----------------------------------------------|
E|-11-11-x-x-4-4-7-7-x-x-11-11----------------------------------------------|
   *  *      * * * *     *  *

At the end of the bridge play:
e|---------------------------------------------------------------------------|
B|---------------------------------------------------------------------------|
G|---------------------------------------------------------------------------|
D|-11-11-11-11-11-11---------------------------------------------------------|
A|-11-11-11-11-11-11---------------------------------------------------------|
E|-11-11-11-11-11-11---------------------------------------------------------|

Then just end with the chorus and that's it, pretty simple. E-mail me with any questions.


| /  slide up
| \  slide down
| h  hammer-on
| p  pull-off
| ~  vibrato
| +  harmonic
| x  Mute note
===============================================================================
Tap to rate this tab
# A B C D E F G H I J K L M N O P Q R S T U V W X Y Z