Song name
# A B C D E F G H I J K L M N O P Q R S T U V W X Y Z

Hollywood Undead - We Are tab

Intro:

E|---5---5---5-5---5--| X2
B|-----3---3-----3---3|
G|--------------------|
D|--------------------|
A|--------------------|
D|--------------------|

E|---5---5---6---6---3---3---1---1--| X2
B|-----3---3---3---3---3---3---3---3|
G|----------------------------------|
D|----------------------------------|
A|----------------------------------|
D|----------------------------------|

 Chorus:

E|---------------------------| X4
B|---------------------------|
G|---------------------------|
D|0--------3--------7--------|
A|0--------3--------7--------|
D|0--------3--------7--------|

 Verse:

E|------------------------| X1
B|-8--10--11--10---8---5--|
G|------------------------|
D|------------------------|
A|------------------------|
D|------------------------|

E|--------------------------------------------|
B|--------------------------------------------|
G|--7--5--7----7--5--7----7--5--7---7--5--2--|
D|-------------------------------------------|
A|-------------------------------------------|
D|-------------------------------------------|

Chorus 

Verse 

Bridge(No guitar)

 Chorus:

E|------------------------------| X1
B|------------------------------|
G|------------------------------|
D|3--0--------3--------7--------|
A|3--0--------3--------7--------|
D|3--0--------3--------7--------|

 Chorus:

E|---------------------------| X4
B|---------------------------|
G|---------------------------|
D|0--------3--------7--------|
A|0--------3--------7--------|
D|0--------3--------7--------|

Outro:

E|---5---5---6---6---3---3---1---1--| X2
B|-----3---3---3---3---3---3---3---3|
G|----------------------------------|
D|----------------------------------|
A|----------------------------------|
D|----------------------------------| 

E|-------------------------------------------| X2
B|-8--10--11--10---8---5---3-----8----6--8--6|
G|-------------------------------------------|
D|-------------------------------------------|
A|-------------------------------------------|
D|-------------------------------------------| 

E|-------------------------| 
B|-8--10--11--10---8---5---|
G|-------------------------|
D|-------------------------|
A|-------------------------|
D|-------------------------|
Tap to rate this tab
# A B C D E F G H I J K L M N O P Q R S T U V W X Y Z