Song name
# A B C D E F G H I J K L M N O P Q R S T U V W X Y Z

Holocaust - Come On Back tab

Main Riff
e:------------------------------------------------------------| 
B:------------------------------------------------------------| 
G:------------------------------------------------------------| 
D:-----2-2-2-2-2-2--5-2-2-2-2-2-2----2-2-2-2-2-2-2-2--5-5-7-7-| 
A:-2-5-0-0-0-0-0-0--3-0-0-0-0-0-0--5-0-0-0-0-0-0-0-0--3-3-5-5-| 
E:-0-3-----------------------------3--------------------------|

Chorus
e:---------------------------------| 
B:---------------------------------| 
G:---------------------------------| 
D:-7--7--5-----3---3---3---3---3-5-| 
A:-7--7--5-----3---3---3---3---3-5-| 
E:-5--5--3---0-1-0-1-0-1-0-1-0-1-3-|

Interlude
e:-----------------------------------| 
B:-----------------------------------| 
G:-------------------------5--777777-| 
D:-7---5---3---2---7---5---5--777777-| 
A:-7---5---3---2---7---5---3--555555-| 
E:-5---3---1---0---5---3-------------|

Ending
e:-----------------------------------------| 
B:-----------------------------------------| 
G:-----------------------------------------| 
D:-7--7--5---2-2-2-2-2-2--5-2-2-2-2-2-2----|
A:-7--7--5---0-0-0-0-0-0--3-0-0-0-0-0-0--5-|
E:-5--5--3-------------------------------3-|

Order
Main Riff x6
Chorus x2
Main Riff x6
Chorus x2
Interlude x1
Main Riff x4
Chorus x2
Ending x6
Tap to rate this tab
# A B C D E F G H I J K L M N O P Q R S T U V W X Y Z