Song name
# A B C D E F G H I J K L M N O P Q R S T U V W X Y Z

Home Star Runner - Nocturnal tab

-------------------------------------------------------------------------------
			     Nocturnal - Home Star Runner
-------------------------------------------------------------------------------

Tabbed by: Simon Downey
Email: Si_downey@hotmail.com

Tuning: Standard (EADGBe)

Here is Home Star Runners Upcoming Single Nocturnal.
Thought I'd tab it for the Laugh since There are no Home star tabs.
Hope its ok, Couldn't Figure the Lead part for the Bridge but Ah well... This is my 
tab aswell so Giz an email if ye have any questions. These Guys are an Amazing band if ye 
heard them yet definitely check them out at http://www.blastspace.com/homestarrunner
Si


  Guitar 1

  (Intro)
e|---------------------------------------------------------------------------|
B|---------------------------------------------------------------------------|
G|--13-13-131313-/-9999---9-9-999-/-14141414---------------------------------|
D|--x--x--x-x-x--/-xxxx---x-x-xxx-/-x-x-x-x----------------------------------|
A|--11-11-111111-/-7777---7-7-777-/-12121212---------------------------------|
E|---------------------------------------------------------------------------|

e|---------------------------------------------------------------------------|X6
B|---------------------------------------------------------------------------|
G|--13-13-131313-/-9999---9-9-999--8-----------------------------------------|
D|--x--x--x-x-x--/-xxxx---x-x-xxx--x-----------------------------------------|
A|--11-11-111111-/-7777---7-7-777--6-----------------------------------------|
E|---------------------------------------------------------------------------|


  (Verse) Riff 1
e|---------------------------------------------------------------------------|X4
B|---------------------------------------------------------------------------|
G|---------------------------------------------------------------------------|
D|---------------------------------------------------------------------------|
A|----9h11p9/7---7h9-7h9-7h9----------9h11p9/7---7h9-7h9-7-------------------|
E|--00----------0---0---0-----------00----------0---0---0--------------------|
    ..          .   .   .           ..          .   .   .

   Pre-Chorus
e|---------------------------------------------------------------------------|X3
B|---------------------------------------------------------------------------|
G|---------------------------------------------------------------------------|
D|---------------------------------------------------------------------------|
A|-----6h7----9p79p7---------------------------------------------------------|
E|--0-0----444---------------------------------------------------------------|

e|---------------------------------------------------------------------------|
B|---------------------------------------------------------------------------|
G|---------------------------------------------------------------------------|
D|-----------7--9------------------------------------------------------------|
A|-----6h7---7--9------------------------------------------------------------|
E|--0-0------5--7------------------------------------------------------------|


  (Chorus)
e|---------------------------------------------------------------------------|X3
B|---------------------------------------------------------------------------|
G|---------------------------------------------------------------------------|
D|--22222---77777---44444---77777--------------------------------------------|
A|--22222---77777---44444---77777--------------------------------------------|
E|--00000---55555---22222---55555--------------------------------------------|

e|---------------------------------------------------------------------------|
B|---------------------------------------------------------------------------|
G|---------------------------------------------------------------------------|
D|--22222---77777---44444---3------------------------------------------------|
A|--22222---77777---44444---3------------------------------------------------|
E|--00000---55555---22222---1------------------------------------------------|


  (Bridge)
e|-------------------------------------------------------------------------------|X2
B|-------------------------------------------------------------------------------|
G|--99999999999999999999---99999999999999----------------------------------------|
D|--xxxxxxxxxxxxxxxxxxxx---999999999999991111111111111111111111111177777777777777|
A|--77777777777777777777---777777777777771111111111111111111111111177777777777777|
E|---------------------------------------9-9-9-9-9-9-9-9-9-9-9-9-9-55555555555555|


e|---------------------------------------------------------------------------|X2
B|---------------------------------------------------------------------------|
G|--99999999999999999999-----------------------------------------------------|
D|--99999999999999999999111111111111111111111111111177777777777777-----------|
A|--77777777777777777777111111111111111111111111111177777777777777-----------|
E|----------------------9-9-9-9-9-9-9-9-9-9-9-9-9-9-55555555555555-----------|
    ..............................................................

e|---------------------------------------------------------------------------|
B|---------------------------------------------------------------------------|
G|---------------------------------------------------------------------------|
D|--22222---77777---44444---77777--------22222---77777---44444---777/99------|
A|--22222---77777---44444---77777--------22222---77777---44444---777/99------|
E|--00000---55555---22222---55555--------00000---55555---22222---555/77------|


  Intro
  Verse
  Pre-Chorus
  Chorus
  Verse
  Pre-Chorus
  Chorus
  Bridge
  Chorus

  Guitar 2


  (Intro)
e|---------------------------------------------------------------------------|X1
B|---------------------------------------------------------------------------|
G|---------------------------------------------------------------------------|
D|--22-------------------2---------------------------------------------------|
A|--22-------------------2---------------------------------------------------|
E|--00-------------------0---------------------------------------------------|

e|---------------------------------------------------------------------------|
B|---------------------------------------------------------------------------|
G|---------------------------------------------------------------------------|
D|--22222---77777---44444---77777--------------------------------------------|
A|--22222---77777---44444---77777--------------------------------------------|
E|--00000---55555---22222---55555--------------------------------------------|

e|---------------------------------------------------------------------------|X2
B|---------------------------------------------------------------------------|
G|---------------------------------------------------------------------------|
D|--22222---77777---44444---3------------------------------------------------|
A|--22222---77777---44444---3------------------------------------------------|
E|--00000---55555---22222---1------------------------------------------------|


  (Verse)
e|---------------------------------------------------------------------------|
B|---------------------------------------------------------------------------|
G|---------------------------------------------------------------------------|
D|--22--x30------------------------------------------------------------------|
A|--22-----------------------------------------------------------------------|
E|--00-----------------------------------------------------------------------|
    ..

  (Chorus)
e|---------------------------------------------------------------------------|X3
B|---------------------------------------------------------------------------|
G|---------------------------------------------------------------------------|
D|--22222---77777---44444---77777--------------------------------------------|
A|--22222---77777---44444---77777--------------------------------------------|
E|--00000---55555---22222---55555--------------------------------------------|

e|---------------------------------------------------------------------------|
B|---------------------------------------------------------------------------|
G|---------------------------------------------------------------------------|
D|--22222---77777---44444---3------------------------------------------------|
A|--22222---77777---44444---3------------------------------------------------|
E|--00000---55555---22222---1------------------------------------------------|


 (Bridge)
e|-------------------------------------------------------------------------------|X2
B|-------------------------------------------------------------------------------|
G|--99999999999999999999---99999999999999----------------------------------------|
D|--xxxxxxxxxxxxxxxxxxxx---999999999999991111111111111111111111111177777777777777|
A|--77777777777777777777---777777777777771111111111111111111111111177777777777777|
E|---------------------------------------9-9-9-9-9-9-9-9-9-9-9-9-9-55555555555555|


e|---------------------------------------------------------------------------|X2
B|---------------------------------------------------------------------------|
G|--99999999999999999999-----------------------------------------------------|
D|--99999999999999999999111111111111111111111111111177777777777777-----------|
A|--77777777777777777777111111111111111111111111111177777777777777-----------|
E|----------------------9-9-9-9-9-9-9-9-9-9-9-9-9-9-55555555555555-----------|
    ..............................................................

e|---------------------------------------------------------------------------|
B|---------------------------------------------------------------------------|
G|---------------------------------------------------------------------------|
D|--22222---77777---44444---77777--------22222---77777---44444---777/99------|
A|--22222---77777---44444---77777--------22222---77777---44444---777/99------|
E|--00000---55555---22222---55555--------00000---55555---22222---555/77------|

| /  slide up          Intro
| \  slide down        Verse
| h  hammer-on         Chorus
| p  pull-off          Verse
| ~  vibrato           Chorus
| +  harmonic          Bridge
| x  Mute note         Chorus
===============================================================================
Tap to rate this tab
 
# A B C D E F G H I J K L M N O P Q R S T U V W X Y Z