Song name
# A B C D E F G H I J K L M N O P Q R S T U V W X Y Z

Homestuck - Make A Wish tab

Make a Wish from the Strife album
you know the timing's weird but the notes are pretty accurate
got this from mediokreKarapase on the mspa homestuck sheet music forum
yeah

|-----0--------------------------|-----5------------------------0-|
|----3---------------------------|----3-----------------------3---|
|---2----------------------------|---2----------------------------|
|0-------------------------------|0-------------------------------|
|--------------------------------|--------------------------------|
|--------------------------------|--------------------------------|

|-----0--------------------------|-----0--------------------2-----|
|----3-----------------------3---|----3-----------------------3---|
|---2--------------------------2-|---2--------------------------2-|
|--------------------------------|--------------------------------|
|--------------------------------|0-------------------------------|
|3-------------------------------|--------------------------------|

|-----0--------------------------|-----0--------------------------|
|----3---------------------3-----|----3---------------------3-----|
|---2------------------------2---|---2------------------------2---|
|0-----------------------------0-|--------------------------------|
|--------------------------------|--------------------------------|
|--------------------------------|3-----------------------------3-|

|-----0--------------2-0-2-3-----|--------------------------------|
|----3---------------------------|--------------------------------|
|---2----------------------------|--------------------------------|
|--------------------------------|--------------------------------|
|0-------------------------------|--------------------------------|
|--------------------------------|--------------------------------|

|------0-------0-------0-------0-|------0-------0-------0-------0-|
|----3-------3-------3-------3---|----3-------3-------3-------3---|
|--2-------2-------2-------2-----|--2-------2-------2-------2-----|
|0-------0-------0-------0-------|--------------------------------|
|--------------------------------|2-------2-------2-------2-------|
|--------------------------------|--------------------------------|

|------0-------0-------0-------0-|------0-------0-------0-------0-|
|----3-------3-------3-------3---|----3-------3-------3-------3---|
|--2-------2-------2-------2-----|--2-------2-------2-------2-----|
|--------------------------------|--------------------------------|
|--------------------------------|1-------1-------1-------1-------|
|3-------3-------3-------3-------|--------------------------------|

|------0-------0-------0-------0-|------0-------0-------0-------0-|
|----3-------3-------3-------3---|----3-------3-------3-------3---|
|--2-------2-------2-------2-----|--2-------2-------2-------2-----|
|0-------0-------0-------0-------|--------------------------------|
|--------------------------------|2-------2-------2-------2-------|
|--------------------------------|--------------------------------|

|------0-------0-------0-------0-|------0-------0-------0-------0-|
|----3-------3-------3-------3---|----3-------3-------3-------3---|
|--2-------2-------2-------2-----|--2-------2-------2-------2-----|
|--------------------------------|--------------------------------|
|--------------------------------|1-------1-------1-------1-------|
|3-------3-------3-------3-------|--------------------------------|

|------0-------0-------0-------0-|------0-------0-------0-------0-|
|----3-------3-------3-------3---|----3-------3-------3-------3---|
|--2-------2-------2-------2-----|--2-------2-------2-------2-----|
|--------------------------------|--------------------------------|
|0-------0-------0-------0-------|3-------3-------3-------3-------|
|--------------------------------|--------------------------------|

|------0-------0-------0-------0-|------0-------0-------0---2-----|
|----3-------3-------3-------3---|----3-------3-------3-----------|
|--2-------2-------2-------2-----|--2-------2-------2-------------|
|--------------------------------|--------------------------------|
|2-------2-------2-------2-------|1-------1-------0---------------|
|--------------------------------|--------------------------------|

|2-------------------------------|--------------------------------|
|3-------------------------------|--------------------------------|
|2-------------------------------|--------------------------------|
|0-------------------------------|--------------------------------|
|--------------------------------|--------------------------------|
|--------------------------------|--------------------------------|
Tap to rate this tab
# A B C D E F G H I J K L M N O P Q R S T U V W X Y Z