Song name
# A B C D E F G H I J K L M N O P Q R S T U V W X Y Z

Hoobastank - Slow Down tab

*******************************************************************************
************************* Hoobastank - Slow Down ******************************
*******************************************************************************

hi there, this is my second tab. i love this song especially in acoustic part.
i believe this is not 100% correct. but i play this entirely song just like this.
any critics and comments are welcome.

enjoy it

Standard Tuning.

Intro
e----------------------------------------------------------|
B------------------7---7---7---7---8---8---8---8-----------|
G--7---7---7---7-----7---7---7---7---7---7---7---7---------|
D----9---9---9---9-----------------------------------------|
A----------------------------------------------------------|
E----------------------------------------------------------|

Verse
e----------------2-----------------------------------------|
B-------------0-------0----------------------0-------------|
G-----------------------------------------------0----------|
D--------5-------------------------2-----2-----------------|
A----------------------------------------------------------|
E---3-----------------------0------------------------------|

Pre-Chorus
e-----------22-------22-------2-----2---------------------------------------------|
B---------------------------------------------------------------------------------|
G--------------------------------------------------44-------44------4-----4-------|
D------4-4-------4-4-------4-----4------------4-4------4-4-------4-----4----------|
A---------------------------------------------------------------------------------|
E--3--------------------------------------0---------------------------------------|

Chorus - distortion
e------------------------------------------------|-----------------|
B---0--------------------------------------------|-----0-----------|
G---5-----------9-----------4------------6-------|-----5--------4--|
D---5-----------9-----------5------------7-------|-----5--------5--|
A---3-----------7-----------5------------7-------|-----3--------5--|
E---------------0-----------3------------5-------|2x------------3--|

Repeat verse
Repeat chorus (without pre-chorus)

Repeat chorus
Dough will be sing “slow down, let go now…. Slow down…..”

e------------------------------------------------|
B---0--------------------------------------------|
G---5-----------9-----------4------------6-------|
D---5-----------9-----------5------------7-------|
A---3-----------7-----------5------------7-------|
E---------------0-----------3------------5-------|

outro - Acoustic
e------------------------------------------------------------------------------|
B-----------0-------10-------8-----------------------0-------3---5-------0-----|
G-------7-------7--------7-------7---------------4-------4-----------4-----4---|
D-----9---9-------9--------9-------9-----------5---5-------5---5---5---------5-|
A------------------------------------------------------------------------------|
E------------------------------------------------------------------------------|

e------------------------------------------------------------------------0------|
B---------0-------2---3---2----------------------0------------------------------|
G-----3-------3-----3---3----3---------------6-------6---------------4------4---|
D---4---4-------4--------------4-----------7---7-------7-----------5---5------5-|
A-------------------------------------------------------------------------------|
E-------------------------------------------------------------------------------|

well, i dont know hte chord what Dan played in this section, but you can figure it out 
from the pattern of the melody.
i believe will be Bm, G, F#, A, then G.

that's all.

keep playing. :)
Tap to rate this tab
# A B C D E F G H I J K L M N O P Q R S T U V W X Y Z