Song name
# A B C D E F G H I J K L M N O P Q R S T U V W X Y Z

Hooters - Johnny B tab

Hi, it is my first tab, so there can be mistakes in solo. I think parts:
e-----------------      e-17-17-15-17-17-17-|
H---------6-------      H-------------------|
G---7-7-7---7-----      G-------------------|
D---7-7-7-----7---      D-------------------|
A-5-------------5-      A-------------------|
E----------------- and  E-------------------| aren't 100% well but it sounds not so bad 
Have Fun

Intro: x2

e--|--------12---12-------------------------------------------------------|--1st-time-----------|
H--|--13-15---------15-13-12----15-13-12----------12-13---13-12-----------|--------12-13-12-----|
G--|-------------------------14----------14----14---------------14-12-14--|-----14--------------|
D--|----------------------------------------14----------------------------|--14-----------------|
A--|----------------------------------------------------------------------|---------------------|
E--|----------------------------------------------------------------------|---------------------|

Verse:

       a         F           a            F
It's a sleepless night she's calling your name
       a      F      a            F
It's a lonely ride I know how you want her
d         F            d         F
Again and again you're chasing a dream yeah
    a         F            a            F
But Johnny my friend she's not what she seems


Chorus:

       a      F                G
Johnny B  how much there is to see
     a         F         G         a
Just open your eyes  and listen to me
         a        F                    G
Straight ahead  a green light turns to red
   a             F    G         a
Oh why can't you see  oh Johnny B

Verse 2:

And when you drive her home and she's sittin' real close
Does she make you weak well that's the way that she wants you
You're strung out again She's taken you over
You've been here before why can't you let go

Solo:

e--|-------------------------------------------------------------------------------------------|
H--|-------------------------------------------------------------6----------8b10-9-------------|
G--|--5-9p7-5-7----7p5---5-7p5-----------------------------7-7-7---7---------------9-9---------|
D--|-------------------7-------7p5--------------5-7--------7-7-7-----7-------------------------|
A--|-------------------------------8----8p7-5-8-----8----5-------------5-----------------------|
E--|-------------------------------------------------------------------------------------------|

e--|------------------8-------------------------------------------10b12-10----10b12-(12)r10p8--|
H--|--------------8-8--------------------------------------------------------------------------|
G--|--------5-7/9-------9\7-5-5----7----5-7/9-5-------5---5-5----------------------------------|
D--|----5h7-------------------------------------7p5-7-----------7------------------------------|
A--|--7-------------------------------------------------------8--------------------------------|
E--|-------------------------------------------------------------------------------------------|

e--|----------8-8--------------8-10/12-17-17-15-17-17-17---12h15-12-21b23---17p15----15h17-----|
H--|--10p8-10-------------8h10----------------------------------------------------17-----------|
G--|--------------9\5--------------------------------------------------------------------------|
D--|------------------7------------------------------------------------------------------------|
A--|-------------------------------------------------------------------------------------------|
E--|-------------------------------------------------------------------------------------------|

e--|----8p7------------------------------------------------------------------------------------|
H--|--5-----8p5-8b10-8p5-7~~~~~~---7p5---5-5---------------------------------------------------|
G--|-----------------------------------7-------------------------------------------------------|
D--|-----------------------------------------7p5-----------------------------------------------|
A--|---------------------------------------------8p5-------------------------------------------|
E--|-------------------------------------------------------------------------------------------|

Verse 3:

And when she calls your name my sweet Johnny B
You can drive all night and you know she'll be waiting
To love you again her kiss is her poison
Forever inside you wherever you go

Outro: like Intro
Tap to rate this tab
# A B C D E F G H I J K L M N O P Q R S T U V W X Y Z