Song name
# A B C D E F G H I J K L M N O P Q R S T U V W X Y Z

Hooverphonic - Mad About You chords

Highlighted       Show chord diagrams
Intro: C#m B | A G#m | 4x

Verse:
C#m  B   A    G#m
C#m  B   A    G#m

 C#m                     B
Feel the vibe, feel the terror, feel the pain
       A           G#m
It's driving me insane
C#m               B
I can’t fake For god sakes why am I
        A             G#m
Driving in the wrong lane

Trouble is my middle name
But in the end I'm not too bad
Can someone tell me if it's 
wrong to be so mad  

       C#m B
about you
A G#m      C#m B A G#m     
Mad about you...Mad

Are you the fishy wine that will give me
A headache in the morning
Or just a dark blue land mine
That'll explode without a decent warning

Give me all your true hate
And I'll translate it in our bed
Into never seen passion, never seen passion
That it why I am so mad

about you
Mad about you...Mad

  F#m            
Trouble is your middle name
           G#m
But in the end you're not too bad
     F#m
Can someone tell me if it's 
  G#m
wrong to be So mad 
 
about you
Mad about you
Mad about you
Mad about you...Mad

             C#m     B         A       G#m       C#m     B        A        G#m  
Solo: e|-------------------------------4--9------4-4-2-0-4-4-2-0-2h4-4-2-0---9-|
      B|-----7-7-7-5-7-7-7-5-5h7-7-7-5-------5h7---------------------------2---|          
      G|-5h6-------------------------------------------------------------------|
      D|-----------------------------------------------------------------------|
      A|-----------------------------------------------------------------------|
      E|-----------------------------------------------------------------------|
          “C#m”“B”     “A”    “G#m”    “C#m”   “B”       “A”     “G#m”                 
      E|-7h9---7-----------------9---------------------------------------------|
      B|-----9---7-9-5-7-7-7-2-4--------9-9-7-5-9-9-7-5-5h8-8-7-5--------------|
      G|----------------------------5h6---------------------------6--4h5h6-----|
      D|-----------------------------------------------------------------------|
      A|-----------------------------------------------------------------------|
      E|-----------------------------------------------------------------------|

Give me all your true hate
And I'll translate it in your bed
Into never seen passion
That is why I am so mad 

about you
Mad about you
Mad about you, 
Mad about you...Mad

Outro: C#m B  | A G#m | 3x
       C#m--- |

chords from Jokyonim_Dre
Tap to rate this tab
# A B C D E F G H I J K L M N O P Q R S T U V W X Y Z