Song name
# A B C D E F G H I J K L M N O P Q R S T U V W X Y Z

Horace Silver - Song For My Father tab

 Fm                                               Eb7             Db7
|--------------|--------------------------------|--6-------|-------4---|
|--------------|-1------------------------------|--8-------|-------6---|
|-rest------1--|---3---3---1---1-------3---1----|--7-------|-------5---|
|---------3----|-----1-------3-----3-1-------3--|--8-------|-------6---|
|-------3------|--------------------------------|--6-------|-------4---|
|--------------|--------------------------------|--6-------|-3-2-1-4---|
                       BRIDGE
  G/C    Fm            Eb7    Fm     Eb7 Db7 G/C    Fm
|--3---|--1--|--------|-6------1------6---4---3------1----|
|--3---|--1--|--------|-8------1------8---6---3------1----|
|--5---|--1--|-REPEAT-|-7------1------7---5---5------1----|
|--3---|--3--|--------|-8------3------8---6---3------3----|
|--3---|--3--|--------|-6------3------6---4---3------3----|
|--3---|--1--|--------|-6------1------6---4---3------1----|

Then you just do solo's, and I guess repeat the song. This is a little more basic than 
original which has more notes in it. Enjoy.
Tap to rate this tab
 
# A B C D E F G H I J K L M N O P Q R S T U V W X Y Z