Song name
# A B C D E F G H I J K L M N O P Q R S T U V W X Y Z

Horrorshow - All Summer Long tab

definately not perfect, just to play along with:

standard tuning: EADGBE



INTRO:
E|---------------------||
B|---------------------||
G|-----7-11-9-7--------||  
D|-7-9----------9-7----||
A|---------------------||
E|---------------------||

VERSES:
E|---------------------||------------------||
B|---------------------||-7~--5--7~--------||
G|-----7-9-9/11-9-7----||-7~--6--7~--7--7--||
D|-7-9--------------9~-||-7~--7--7~--9-9-9-||
A|---------------------||------------------||
E|---------------------||------------------||

that's pretty much it, just play around with it!


Tap to rate this tab
# A B C D E F G H I J K L M N O P Q R S T U V W X Y Z