Song name
# A B C D E F G H I J K L M N O P Q R S T U V W X Y Z

Hostility - Wake Up tab

E  |-5------1-------------0--6--1-----------0--6---234---0----4---|
B  |--8------3-----------2---9---2---------1---4---345---5-----7--|
G  |---4-------5--------4----5----3-------2----9---456---0------3-|
D  |--7---------7------6-----7-----4-----3-----8---456---7-----7--|
A  |-4-----------9----8------4------5---4------3---345---0----9---|
E  |--8-----------11-10------6-------6-5-------6---234---9---0----|

E  |--------------------------------------------------------------|
B  |--------------------------------------------------------------|
G  |--------------------------------------------------------------|
D  |-3-5--7--2--123--5--8--0--2--6---8---3--5-2--5---8----2-------|
A  |7-4--5--5---234-5--6--8--3--0---1---4--6----7--2---6-6--6-----|
E  |---5--5--8--345--4--8--4--8--9-0--1--3--6-7--98--9--4--3------|
Tap to rate this tab
# A B C D E F G H I J K L M N O P Q R S T U V W X Y Z