Song name
# A B C D E F G H I J K L M N O P Q R S T U V W X Y Z

Hot Butter - Popcorn tab

This tab is played COMPLETELY using harmonics...

The original piece is played in D Major... but unless you want to drop the tuning of
your guitar 5 semi-tones, it is easier to just play it in G Major. Part A is relatively
easy to play, just a matter of moving fast enough between harmonics... - the actual tune
isn't even that fast... but it's quite impressive if you play it at anything around the
150BMP+ mark.

Part B is a little harder because of the harmonics being that much harder to find,
especially the harmonic of the 2nd fret on the 'A' string - it shouldn't be a problem
if you have accurate fingers... but miss it by just the slightest bit and you'll either
hit a different harmonic, or mute it... - it is not exactly ontop of the 2nd fret. it is
just above it (towards the headstock). Anyway... thats the only note I have a hard time
with... the rest is just a matter of fluency... have fun.

Part A1
e--12---12---------------12---12-------------|
B----------12----12--------------12----12----|
G-----7-------12------------7-------12-------|
D--------------------------------------------|
A-------------------7---------------------7--|
E--------------------------------------------|

A2
e--12---------12---12-----12--12----12--|
B-----7---7------7----7----------12-----|
G-------5---5-----------7---7-----------|
D---------------------------------------|
A---------------------------------------|
E---------------------------------------|

A3
e--12---------12---12-----12--12------|
B-----7---7------7----7----------7----|
G-------5---5-----------7---7------5--|
D-------------------------------------|
A-------------------------------------|
E-------------------------------------|

***********************************************************

Part B1
e-----------------------------------|
B--5---5------------5---5-----------|
G--------5---5-12---------5---5-12--|
D----3-----5----------3-----5-------|
A-----------------------------------|
E-----------------------------------|

B2
e---------------------------------|
B--5---------5---5-----5---5---5--|
G------3---3-----------------5----|
D--------------------3---3--------|
A----2---2-----2---2--------------|
E---------------------------------|

B3
e--------------------------12------|
B--5---------5---5-----5--------5--|
G------3---3-----------------------|
D--------------------3---3----3----|
A----2---2-----2---2---------------|
E----------------------------------|

Order:

A1 - A2 - A1 - A3
B1 - B2 - B1 - B3

***********************************************************
***********************************************************

Advanced: After it has played once through, it then gets alittle
more tech... not massively harder... but just hitting extra notes
here and there and abit more interest concerning the rhythm...

Part A1y
e--12---12--------------12---12--------------|
B----------12---12---------------12---12-----|
G-----7--------12----------7---------12------|
D--------------------------------------------|
A-------------------7---------------------7--|
E--------------------------------------------|

A2y
e--12------------12---12------12---12-12---12--|
B-----7----7-------7----7-7---------------12---|
G-------5---5-5--------------7----7------------|
D----------------------------------------------|
A----------------------------------------------|
E----------------------------------------------|

A3y
e--12------------12---12------12---12-12------|
B-----7----7-------7----7-7---------------7---|
G-------5---5-5--------------7----7--------5--|
D---------------------------------------------|
A---------------------------------------------|
E---------------------------------------------|

***********************************************************

Part B1y
e---------------------------------------|
B--5---5--------------5---5-------------|
G--------5---5---12---------5---5---12--|
D----3------5-----------3------5--------|
A---------------------------------------|
E---------------------------------------|

B2y
e-----------------------------------------|
B--5-------------5---5-------5---5-5---5--|
G------3---3-3------------------------5---|
D---------------------------3---3---------|
A----2----2-------2---2-2-----------------|
E-----------------------------------------|

B3y
e---------------------------------12-12-----|
B--5-------------5---5--------5----------5--|
G------3---3-3------------------------------|
D---------------------------3---3-------3---|
A----2----2-------2---2-2-------------------|
E-------------------------------------------|

Outro
e--12---12--(Pause)--12---12--(P)--12---12----12----12----12--------|
B-------------------------------------------------------------------|
G-----7-----------------7-------------7-----------------------------|
D-------------------------------------------------------------------|
A----------------------------------------------------------------7--|
E-------------------------------------------------------------------|

Advanced Order:

A1 - A2 - A1 - A3
B1 - B2 - B1 - B3
A1y - A2y - A1y - A3y
B1y - B2y - B3y - B4y

- Interlude

A1y - A2y - A1y - A3y
B1y - B2y - B1y - B3y
A1 - A2y - A1 - A2y
Outro
Tap to rate this tab
 
# A B C D E F G H I J K L M N O P Q R S T U V W X Y Z