Song name
# A B C D E F G H I J K L M N O P Q R S T U V W X Y Z

Hot Chelle Rae - Alright chords

Highlighted       Show chord diagrams
Artist: Hot Chelle Rae
Song: Alright
Album: Lovesick Electric
Tabbed by: gustavoaraujo999@hotmail.com

Chords used:
B/D# - x698xx
C#   - x466xx
B    - x244xx
A    - x02220
A*   - xx 7 9 10 x
E    - 022100  
E*   - x799xx
F    - 133xxx
G    - 355xxx
G#   - 466xxx


[Verse 1]
e|-------------------------------------| e|-----------------|
B|-5-4---5-4---5-4---5-4---5-4---------| B|-5-4-----5-4-7~--|
G|----4-----4-----4-----4-----4--------| G|-----4~----------|
D|-------------------------------[x2]--| D|-----------------|
A|-------------------------------------| A|-----------------|
E|-------------------------------------| E|-----------------|
 
E*                                  B/D#
I took a drive in the middle of the night
                                      C#     B                 
The first time I've done that without you    by my side

E*                              B/D#
And our song was playing on the radio
                                   C#      B          B(hold)        
It seems to follow me everywhere I go,     where I go
 

[Chorus]
               E                              A
So would you   come back in the middle of the night
                                   C#            B             A
And tell me everything is gonna be alright, it's alright, it's alright

Without


[Verse 2]
E*                          B/D#
You here everything is gray
                                     C#                 B                 
The color faded when you packed your bags and you drove away

E*                                       B/D#
It's hard to act like everything's the same
                                        C#                   
The closest I can get to you is in this frame
   B             B(hold)     
I wanna hear you say


[Chorus 2]
                E                              A
That you will   come back in the middle of the night
                                   C#            B             A    A*
And tell me everything is gonna be alright, it's alright, it's alright
        E                              A
We're face to face while the stars are burning bright
                                   C#            B             A
And tell me everything is gonna be alright, it's alright, it's alright
C#            B             A
It's alright, it's alright, it's alright


[Bridge]
F      G    G#          F
In the dark you come to life
    G    G#             C#   G/
The memories of you and I
F          G       G#        F
I want to keep you here with me
      G     G#               C#
Don't wake me up just let me dream


[Solo]
e|------------------------------------|
B|----------/13-11-----------/14--13--|
G|-------11---------------13----------|
D|-11-13------------11-13-------------|
A|------------------------------------|
E|------------------------------------|

e|-11-------------11-----------------------------------------|
B|----13-11----11----13-11-13-11-13--11-13--11-14--11-13-----|
G|----------13-----------------------------------------------|
D|-----------------------------------------------------------|
A|-----------------------------------------------------------|
E|-----------------------------------------------------------|

e|------------------------------------------------------------------|
B|-11-12-------------12---------------------------------------------|
G|-------13-11----11-----13-11-13-x-13---14-14-13-11-13-11----------|
D|-------------14------------------------------------------14-13-14-|
A|------------------------------------------------------------------|
E|------------------------------------------------------------------|


[Chorus 2]
B(hold)   E                              A
          Come back in the middle of the night
                                   C#            B             A    A*
And tell me everything is gonna be alright, it's alright, it's alright
        E                              A
We're face to face while the stars are burning bright
                                   C#            B             A
And tell me everything is gonna be alright, it's alright, it's alright
C#            B             A
It's alright, it's alright, it will never be alright without you.
Tap to rate this tab
# A B C D E F G H I J K L M N O P Q R S T U V W X Y Z