Guitaretab - guitar tabs
Song name
# A B C D E F G H I J K L M N O P Q R S T U V W X Y Z

Hot Chocolate - Emma tab

Standard Tuning
h = Hammer on
v = fast wobble w/ slight bend

Intro; and repeated in song

E|---------------------|-----------------|---------------------------|
B|---------------------|-----------------|---------------------------|
G|---------------------|-----------------|---------------------------|
D|--------0-2-4-5-7v---|--77-55-44-22v---|--23h45v-----77-55-44-22v--|
A|--0-2-4--------------|-----------------|---------------------------|
E|---------------------|-----------------|---------------------------|
Sometimes sounds like they slide to some notes

First solo bit;
[ Tab from: http://www.guitaretab.com/h/hot-chocolate/160157.html ]
E|---------------------|-----------------|------------------|
B|---------------------|-----------------|------------------|
G|---------------------|-----------------|------------------|
D|--7-55-44-22-00------|--5-44-22-00-22v-|------------------|
A|---------------------|-----------------|------------------|
E|---------------------|-----------------|------------------|

Cords G and A all the way through


[EDIT]

Think maybe tiny bit different;
E|---------------------|-----------------|---------------------------|
B|---------------------|-----------------|---------------------------|
G|---------------------|-----------------|---------------------------|
D|--------0-2-4-5-7v---|--77-55-44-22v---|--2h4p25v-----77-55-44-22v-|
A|--0-2-4--------------|-----------------|---------------------------|
E|---------------------|-----------------|---------------------------|
Related for Emma tab
Emma chords by Hot Chocolate