Song name
# A B C D E F G H I J K L M N O P Q R S T U V W X Y Z

Howard Goodall - Red Dwarf chords

Highlighted       Show chord diagrams
Gbdim: xx4545
Abdim: xx6767

Intro riff:
|----------|
|----------|
|----------|
|----------| (x2)
|----2-3-5-|
|3-5-------|


     C        Em          F
It's cold outside there's no kind of atmosphere
    C    Bb   A
I'm all alone more or less
F          Gbdim
Let me fly far away from here
C    Bb   A          Dm   Fm    G
Fun, fun, fun in the sun, sun , sun
  D       F#m G
I want to lie shipwrecked and comatosed
D        C     B
Drinking fresh mango juice
G                Abdim
Goldfish scholes nibbling at my toes
D    C    B          Em   Gm   A
Fun, fun, fun in the sun, sun, sun.
D    C    B          Em   Gm   A
Fun, fun, fun in the sun, sun, sun.

Outro riff:                    D
|----------|       |----------|--5\-|
|----------|       |----------|--7\-|
|----------|       |----------|--7\-|
|----------|<-(x2) |----------|--7\-|
|----4-5-7-|       |----4-5-7-|5-5\-|
|5-7-------|       |5-7-------|-----|
Tap to rate this tab
 
# A B C D E F G H I J K L M N O P Q R S T U V W X Y Z