Song name
# A B C D E F G H I J K L M N O P Q R S T U V W X Y Z

Howard Goodall - Red Dwarf tab

----------------------------------------------------------------------------
			    Red Dwarf Theme - Howard Goodall
----------------------------------------------------------------------------
Tabbed by: Bryn Gibbens

Tuning: Regular

e|-------------------------------------------------------------------------|
B|-------8------------8-10------8--------10-10-12-13-13-12-10-12-13--------|
G|-----9---10-10-9-10---------9---9h10-9-----------------------------------|
D|--10---------------------10----------------------------------------------|
A|-------------------------------------------------------------------------|
E|-------------------------------------------------------------------------|

e|------------------------------------------------------------------------||
B|----pb12-pb11-----pb10-pb9br--------------------------------------------||
G|-12------------10-------------------------------------------------------||
D|------------------------------------------------------------------------||
A|------------------------------------------------------------------------||
E|------------------------------------------------------------------------||

this is my first tab, be kind...

************************************

| /   slide up
| \   slide down
| h   hammer-on
| p   pull-off
| ~   vibrato
| +   harmonic
| x   Mute note
| b   Bend
| pb  Pre-bend
| br  Bend release
| pbr Pre-bend release
| brb Bend release bend

************************************
Tap to rate this tab
 
# A B C D E F G H I J K L M N O P Q R S T U V W X Y Z