Song name
# A B C D E F G H I J K L M N O P Q R S T U V W X Y Z

Howie D - Lie To Me chords

Highlighted       Show chord diagrams
-------------------------------------------------------------------------------
			     LIE TO ME - Howie D ft Neverest
-------------------------------------------------------------------------------
http://www.howied.com

Tabbed by:kamdude

Tuning: standard *capo on 2*

So this song is Simple, just 4 chords, Am, F, C, G throughout the song. 

   Am     F     C      G
e|-0------1-----0------3---------------------------------------------|
B|-1------1-----1------3---------------------------------------------|
G|-2------2-----0------0---------------------------------------------|
D|-2------3-----2------0---------------------------------------------|
A|-0------3-----3------2---------------------------------------------|
E|-0------1-----x------3---------------------------------------------|


   Am      F         C      G
A moonlit wave, the color blue
Am        F        C       G
Stole my strength Stole my Youth
     Am             F
All Around me, All Around me
C    G
Hey...
Am     F       C       G
Water came and washed away
Am     F       C        G
All my life in just one day
     Am             F
All around me, all around me
C     G
Hey...Hey...

Am             F            
Nobody told me we were too young
C              G
Nobody told me we could'nt love
Am                F
Nobody warned me somebody's comin'
C            G    ect..
She is a flood
Nobody told me this would'nt last
Her waves came and swept me back 
Oh why, why,
Won't somebody lie to me?
Lie to Me

A seeking page floats below
The sad remains
of all we wrote

All around me, all around me
Hey... Hey, yeah


Nobody told me we were too young
Nobody told me we could'nt love
Nobody warned me somebody's comin'
She is a flood
Nobody told me this would'nt last
Her waves came and swept me back 
Oh why, why,
Won't somebody lie to me?
Won't sombody Lie to Me?

Yeah, Yeah, Yeah

I'm facin it alone
You're memory's like stone
Washing over me, Washing over me, Washing over me
I'll sink or I'll stay
It's with you or at bay
Could somebody please, just lie to me, yeah


Nobody told me we were too young
Nobody told me we could'nt love
Nobody warned me somebody's comin'
She is a flood
Nobody told me this would'nt last
Her waves came and swept me back 
Oh why, why,
Won't somebody lie to me?
Won't somebody lie to me?
Yeah,yeah, yeah

Nobody told me this would'nt last
Her waves came and swept me back 
Oh why, why,
Won't somebody lie to me?


Oh, somebody lie to me?
Lie to Me
Tap to rate this tab
 
# A B C D E F G H I J K L M N O P Q R S T U V W X Y Z