Song name
# A B C D E F G H I J K L M N O P Q R S T U V W X Y Z

Hujan - Tunggu Sekejap tab

Tunggu Sekejap
P. Ramlee/Hujan

Intro

E|-----5--2--0--2--2--2-------0--2--2-------------5--3--3--7--6/7--7--7--5--3--7--10-----|
B|--------------3--2--2--2h3--------3----------0-----5--4--8--6/7--7--7--5-----8---------|
G|--2-----------2--2--2-------------2--3h4--3--------4--4--7-------------------7---------|
D|--------------------4-------------4----------------------9-------------------9---------|
A|--------------------2-------------2----------------------7-------------------7---------|
E|--------------------2-------------2----------------------7-------------------7---------|


E|--------------------------11--10--7h9--7--6--7--2--2-----6----3--5-----------|
B|-------7--8------------9------------------------2--2-----6----3--5--7--5-----|
G|--7h8--------------10---------------------------3--3--4--6----4--6--6--6-----|
D|----------------9-------------------------------2--2--4--6----5--7--4--4-----|
A|------------------------------------------------4--4--6-------5--7--5--5-----|
E|-------------9----------------------------------2--2--4-------3--5--4--4-----|
Tap to rate this tab
# A B C D E F G H I J K L M N O P Q R S T U V W X Y Z