Guitaretab - guitar tabs
Song name
# A B C D E F G H I J K L M N O P Q R S T U V W X Y Z

Human Highway - The Sound tab

Highlighted       Show chord diagrams
http://www.myspace.com/humanhighway

I like this jingle hope y'all do too

Intro and Guthrie verse:

E---7-------------------7--------------------------------------------|
A---8-------------------8--------------------------------------------|
D---9-------------------9--------------------------------------------|
G---9-----12----3---10--9---12--10---3-------------------------------|
B---------12----3---10------12--10---3-------------------------------|
E---------10----5---8-------10---8---5-------------------------------|

Guthrie: Got nothing left but it ain't bringin' me down
         I'm just gonna follow the sound

The "Oh no, Oh no" part: strum a few times
E------------------------------------------------------|
A------------------------------------------------------|
D------------------------------------------------------|
G---12-------------------------------------------------|
B---12-------------------------------------------------|
E---10-------------------------------------------------|
[ Tab from: http://www.guitaretab.com/h/human-highway/182502.html ]
Thorburn:

G                Bm
And the sound is pleasing

Bm        C                 G
When it sounds like it is breathing

G              Bm
There's no one around

Bm          C             G
To hear the notes falling down

G               Bm
Nobody seems to care

Bm  C             G
The feeling isn't there

G                     Bm
Like it was all a bad dream

Bm        C       G
Now we're looking everywhere


"You keep searching,
You keep on searching" part:

E--3-----3------------------------------------|
A--4-----4---7--------------------------------|
D--5-----5---7--------------------------------|
G--5-5---5---7--------------------------------|
B----5----------------------------------------|
E----3----------------------------------------|

Then back to Intro/Guthrie's verse and Torburn's 2nd verse and that is the song
Related for The Sound tab
Advertisement will be closed in 10 seconds