Song name
# A B C D E F G H I J K L M N O P Q R S T U V W X Y Z

Human League - Open Your Heart tab

INTRO;

DRUMS ALONE DURING FIRST FOUR BARS

THEN;
   C
e|-----------------------------------------------------------------|
B|-----------------------------------------------------------------|
G|-----------------------------------------------------------------|
D|-----------------------------------------------------------------|
A|-3-3-3-3-3-3-3-3-3-3-3-3-3-3-3-3-3-3-3-3-3-3-3-3-3-3-3-3-3-3-3-3-|
E|-----------------------------------------------------------------|

VERSE 1:
C                               F
And when it hurts you know they love to tell you
G        C
How they warned you
C                               F
They say "Don't be surprised at someone's lies"
G               C
They think they taunt you
C                            
But if you can stand the test
F                             G7   F     G7  F
You know your worst is better than their best

LINK:
   C              F                  C
                                                   |1.         |2.
e|--------------|------------------|-----------|-20--20-----|-20--20--20-|
B|--------------|-10-10-10--11--10-|-10-8-10-8-|------------|------------|
G|:-9-9-9-10--9-|------------------|-----------|-----------:|------------|
D|:-------------|------------------|-----------|-----------:|------------|
A|--------------|------------------|-----------|------------|------------|
E|--------------|------------------|-----------|------------|------------|

VERSE 2:
C                              F
And so you stand here with the years ahead
G           F
Potentially calling
C                         F
With open heart or with a spirit dead
G7  F    G7 F
You walk on

CHORUS;
   C              F                  C
                                                    |1.          |2.
e|-----------------|------------------|-------------|-20--20-----|-20--20--20-|
B|-----------------|-10-10-10--11--10-|-10--8--10-8-|------------|------------|
G|:-9--9--9--10--9-|------------------|-------------|-----------:|------------|
D|:----------------|------------------|-------------|-----------:|------------|
A|-----------------|------------------|-------------|------------|------------|
E|-----------------|------------------|-------------|------------|------------|
    Lies  therea-son Faith or  treason  Playing a part
    End   concealing Try   re--vealing  O - pen yaheart

BRIDGE 1;
   F                                     G
e|--------------------------------------------|
B|-13---12-13---12---13--12-----13---12--15---|
G|--------------------------------------------|
D|--------------------------------------------|
A|--------------------------------------------|
E|--------------------------------------------|
   Dare to feel Take the chance Make the deal

G
Being an island
Shying from trying
C
Seems the easy way
Such an easy way
G
But there's no future without tears

REPEAT CHORUS

BRIDGE 2;
   F                                     G
e|--------------------------------------------|
B|-13---12-13---12---13--12-----13---12--15---|
G|--------------------------------------------|
D|--------------------------------------------|
A|--------------------------------------------|
E|--------------------------------------------|
   Dare to feel Take the chance Make the deal

VERSE 3;
C
But if you can stand the test
F                             G7   F     G7
You know your worst is better than their best

REPEAT CHORUS TILL FADE
Tap to rate this tab
# A B C D E F G H I J K L M N O P Q R S T U V W X Y Z