Song name
# A B C D E F G H I J K L M N O P Q R S T U V W X Y Z

Humble Pie - Stone Cold Fever tab

-------------------------------------------------------------------------------
                             Stone Cold Fever Solo - Humble Pie
-------------------------------------------------------------------------------
Tabbed by: Sitarman9
I know the guy who tabbed this did not have the solo so I decided to do it. Peter 
Frampton does it off the Rock On album (1971). Enjoy!

Tuning:Standard
************************************

| /   slide up
| \   slide down
| h   hammer-on
| p   pull-off
| ~   vibrato
| +   harmonic
| x   Mute note
| b   Bend
| pb  Pre-bend
| br  Bend release
| pbr Pre-bend release
| brb Bend release bend

************************************

e|---------------------------------------------------------------------------|
B|------8h10~---------8p7-----------------8p7----7---------------------------|
G|-------------------------9h11--7-------------9----9p7---9------------------|
D|-----------------------------------9~-----------------9----9\7--5h7p5------|
A|----------------------------------------------------------------------7----|
E|---------------------------------------------------------------------------|

                                                              Sweep down
e|-----------------------------------------------10-10h12--9~---9---------------|
B|--------------------------------------10-10h12-----------------9------9-------|
G|----------------------------7/9-9h11----------------------------9--11---------|
D|-----------------------7/9----------------------------------------------------|
A|-7-9-10-9---------5/9---------------------------------------------------------|
E|----------10-7----------------------------------------------------------------|

e|----------9--12--10----10h12---12b--12br--10--12p10-----10-----------------|
B|-10-12~----------------------------------------------12----12~----10p8p7---|
G|---------------------------------------------------------------------------|
D|---------------------------------------------------------------------------|
A|---------------------------------------------------------------------------|
E|---------------------------------------------------------------------------|
                               sweep up
e|------------------------------------14---17-17-17--15-15-15-14-14-14-12-12-|
B|---7-----------------------------15----------------------------------------|
G|-9----9p7----7~---7-6---------16-------------------------------------------|
D|-----------9---------7-9/--------------------------------------------------|
A|---------------------------------------------------------------------------|
E|---------------------------------------------------------------------------|
                                               palm mute repeating note
e|-12--10-9-10~------10p9p7--------------------------------------------------|
B|-----------------------------7-8--7-8----7---------------------------------|
G|---------------------------------------7-----77-77-77-77-77-77-77--7h9~----|
D|---------------------------------------------------------------------------|
A|---------------------------------------------------------------------------|
E|---------------------------------------------------------------------------|

e|-----------------------------------------------------------------------------|
B|-7h8p7--7~------------7------------------------------------------------------|
G|-------------------7-----9~~/------------------------------------------------|
D|---------------/9------------------END---------------------------------------|
A|-----------------------------------------------------------------------------|
E|-----------------------------------------------------------------------------|
Tap to rate this tab
# A B C D E F G H I J K L M N O P Q R S T U V W X Y Z